  0
SECTION
  2
HEADER
  9
$ACADVER
  1
AC1009
  9
$INSBASE
 10
0.0
 20
0.0
 30
0.0
  9
$EXTMIN
 10
-116.6358947753904
 20
-14.18928527832032
 30
0.0
  9
$EXTMAX
 10
114.6509704589844
 20
35.920745849609389
 30
0.0
  9
$LIMMIN
 10
-134.6436767578125
 20
-148.5
  9
$LIMMAX
 10
210.0
 20
61.565097808837891
  9
$ORTHOMODE
 70
     0
  9
$REGENMODE
 70
     1
  9
$FILLMODE
 70
     1
  9
$QTEXTMODE
 70
     0
  9
$MIRRTEXT
 70
     1
  9
$DRAGMODE
 70
     2
  9
$LTSCALE
 40
1.0
  9
$OSMODE
 70
    37
  9
$ATTMODE
 70
     1
  9
$TEXTSIZE
 40
4.1672001374149312
  9
$TRACEWID
 40
0.05
  9
$TEXTSTYLE
  7
STANDARD
  9
$CLAYER
  8
0
  9
$CELTYPE
  6
BYLAYER
  9
$CECOLOR
 62
   256
  9
$DIMSCALE
 40
1.0
  9
$DIMASZ
 40
4.5700000000000003
  9
$DIMEXO
 40
1.5800000000000001
  9
$DIMDLI
 40
9.6500000000000004
  9
$DIMRND
 40
0.0
  9
$DIMDLE
 40
0.0
  9
$DIMEXE
 40
4.5700000000000003
  9
$DIMTP
 40
0.0
  9
$DIMTM
 40
0.0
  9
$DIMTXT
 40
4.1600000000000001
  9
$DIMCEN
 40
2.279999999999998
  9
$DIMTSZ
 40
0.0
  9
$DIMTOL
 70
     0
  9
$DIMLIM
 70
     0
  9
$DIMTIH
 70
     0
  9
$DIMTOH
 70
     0
  9
$DIMSE1
 70
     0
  9
$DIMSE2
 70
     0
  9
$DIMTAD
 70
     1
  9
$DIMZIN
 70
     8
  9
$DIMBLK
  1

  9
$DIMASO
 70
     1
  9
$DIMSHO
 70
     1
  9
$DIMPOST
  1

  9
$DIMAPOST
  1

  9
$DIMALT
 70
     0
  9
$DIMALTD
 70
     4
  9
$DIMALTF
 40
25.399999999999999
  9
$DIMLFAC
 40
1.0
  9
$DIMTOFL
 70
     1
  9
$DIMTVP
 40
0.0
  9
$DIMTIX
 70
     1
  9
$DIMSOXD
 70
     0
  9
$DIMSAH
 70
     0
  9
$DIMBLK1
  1

  9
$DIMBLK2
  1

  9
$DIMSTYLE
  2
STANDARD
  9
$DIMCLRD
 70
     0
  9
$DIMCLRE
 70
     0
  9
$DIMCLRT
 70
     0
  9
$DIMTFAC
 40
1.0
  9
$DIMGAP
 40
2.279999999999998
  9
$LUNITS
 70
     2
  9
$LUPREC
 70
     6
  9
$SKETCHINC
 40
0.1
  9
$FILLETRAD
 40
0.5
  9
$AUNITS
 70
     0
  9
$AUPREC
 70
     4
  9
$MENU
  1
.
  9
$ELEVATION
 40
0.0
  9
$PELEVATION
 40
0.0
  9
$THICKNESS
 40
0.0
  9
$LIMCHECK
 70
     0
  9
$BLIPMODE
 70
     0
  9
$CHAMFERA
 40
0.0
  9
$CHAMFERB
 40
0.0
  9
$SKPOLY
 70
     0
  9
$TDCREATE
 40
2447893.375
  9
$TDUPDATE
 40
2459165.5255910638
  9
$TDINDWG
 40
0.0020034028
  9
$TDUSRTIMER
 40
0.002003044
  9
$USRTIMER
 70
     1
  9
$ANGBASE
 50
0.0
  9
$ANGDIR
 70
     0
  9
$PDMODE
 70
     0
  9
$PDSIZE
 40
0.0
  9
$PLINEWID
 40
0.0
  9
$COORDS
 70
     0
  9
$SPLFRAME
 70
     0
  9
$SPLINETYPE
 70
     6
  9
$SPLINESEGS
 70
     8
  9
$ATTDIA
 70
     0
  9
$ATTREQ
 70
     1
  9
$HANDLING
 70
 10241
  9
$HANDSEED
  5
1B4
  9
$SURFTAB1
 70
     6
  9
$SURFTAB2
 70
     6
  9
$SURFTYPE
 70
     6
  9
$SURFU
 70
     6
  9
$SURFV
 70
     6
  9
$UCSNAME
  2

  9
$UCSORG
 10
0.0
 20
0.0
 30
0.0
  9
$UCSXDIR
 10
1.0
 20
0.0
 30
0.0
  9
$UCSYDIR
 10
0.0
 20
1.0
 30
0.0
  9
$PUCSNAME
  2

  9
$PUCSORG
 10
0.0
 20
0.0
 30
0.0
  9
$PUCSXDIR
 10
1.0
 20
0.0
 30
0.0
  9
$PUCSYDIR
 10
0.0
 20
1.0
 30
0.0
  9
$USERI1
 70
     0
  9
$USERI2
 70
     0
  9
$USERI3
 70
     0
  9
$USERI4
 70
     0
  9
$USERI5
 70
     0
  9
$USERR1
 40
0.0
  9
$USERR2
 40
0.0
  9
$USERR3
 40
0.0
  9
$USERR4
 40
0.0
  9
$USERR5
 40
0.0
  9
$WORLDVIEW
 70
     1
  9
$SHADEDGE
 70
     3
  9
$SHADEDIF
 70
    70
  9
$TILEMODE
 70
     1
  9
$MAXACTVP
 70
    64
  9
$PLIMCHECK
 70
     0
  9
$PEXTMIN
 10
-134.6436767578125
 20
-148.5
 30
1.0000000000000000E+020
  9
$PEXTMAX
 10
210.0
 20
61.565097808837891
 30
-1.0000000000000000E+020
  9
$PLIMMIN
 10
0.0
 20
0.0
  9
$PLIMMAX
 10
12.0
 20
9.0
  9
$UNITMODE
 70
     0
  9
$VISRETAIN
 70
     0
  9
$PLINEGEN
 70
     0
  9
$PSLTSCALE
 70
     1
  0
ENDSEC
  0
SECTION
  2
TABLES
  0
TABLE
  2
VPORT
 70
     2
  0
VPORT
  2
*ACTIVE
 70
     0
 10
0.0
 20
0.0
 11
1.0
 21
1.0
 12
-0.9874966998797845
 22
20.698668801859171
 13
0.0
 23
0.0
 14
6.3499999046325666
 24
6.3499999046325666
 15
6.3499999046325666
 25
6.3499999046325666
 16
0.0
 26
0.0
 36
1.0
 17
0.0
 27
0.0
 37
0.0
 40
159.39489935159821
 41
1.458837772397094
 42
50.0
 43
0.0
 44
0.0
 50
0.0
 51
0.0
 71
     0
 72
   100
 73
     1
 74
     1
 75
     0
 76
     0
 77
     0
 78
     0
  0
ENDTAB
  0
TABLE
  2
LTYPE
 70
    36
  0
LTYPE
  2
CONTINUOUS
 70
     0
  3
DXF Default line type
 72
    65
 73
     0
 40
0.0
  0
LTYPE
  2
DASHED
 70
     0
  3
DXF Dashed
 72
    65
 73
     2
 40
0.75
 49
0.5
 49
-0.25
  0
LTYPE
  2
HIDDEN
 70
     0
  3
DXF Hidden
 72
    65
 73
     2
 40
0.375
 49
0.25
 49
-0.125
  0
LTYPE
  2
CENTER
 70
     0
  3
DXF Center
 72
    65
 73
     4
 40
2.0
 49
1.25
 49
-0.25
 49
0.25
 49
-0.25
  0
LTYPE
  2
PHANTOM
 70
     0
  3
DXF Phantom
 72
    65
 73
     6
 40
2.5
 49
1.25
 49
-0.25
 49
0.25
 49
-0.25
 49
0.25
 49
-0.25
  0
LTYPE
  2
DOT
 70
     0
  3
DXF DOT
 72
    65
 73
     2
 40
0.25
 49
0.0
 49
-0.25
  0
LTYPE
  2
DASHDOT
 70
     0
  3
DXF Dash Dot
 72
    65
 73
     4
 40
1.0
 49
0.5
 49
-0.25
 49
0.0
 49
-0.25
  0
LTYPE
  2
BORDER
 70
     0
  3
DXF Border
 72
    65
 73
     6
 40
1.75
 49
0.5
 49
-0.25
 49
0.5
 49
-0.25
 49
0.0
 49
-0.25
  0
LTYPE
  2
DIVIDE
 70
     0
  3
DXF Divide
 72
    65
 73
     6
 40
1.25
 49
0.5
 49
-0.25
 49
0.0
 49
-0.25
 49
0.0
 49
-0.25
  0
LTYPE
  2
C_SOLID_L
 70
     0
  3
CADAM Solid Light
 72
    65
 73
     0
 40
0.0
  0
LTYPE
  2
C_SOLID_M
 70
     0
  3
CADAM Solid Medium
 72
    65
 73
     0
 40
0.0
  0
LTYPE
  2
C_SOLID_H
 70
     0
  3
CADAM Solid Heavy
 72
    65
 73
     0
 40
0.0
  0
LTYPE
  2
C_DASHED_L
 70
     0
  3
CADAM Dashed Light
 72
    65
 73
     2
 40
0.375
 49
0.25
 49
-0.125
  0
LTYPE
  2
C_DASHED_M
 70
     0
  3
CADAM Dashed Medium
 72
    65
 73
     2
 40
0.225
 49
0.075
 49
-0.15
  0
LTYPE
  2
C_CENTER_L
 70
     0
  3
CADAM Center Light
 72
    65
 73
     5
 40
3.4500000000000002
 49
1.5
 49
-0.15
 49
0.15
 49
-0.15
 49
1.5
  0
LTYPE
  2
C_PHANTOM_L
 70
     0
  3
CADAM Phantom Light
 72
    65
 73
     7
 40
3.75
 49
1.5
 49
-0.15
 49
0.15
 49
-0.15
 49
0.15
 49
-0.15
 49
1.5
  0
LTYPE
  2
C_NC
 70
     0
  3
CADAM NC
 72
    65
 73
     0
 40
0.0
  0
LTYPE
  2
DSH1
 70
     0
  3
CADAM Style2 Type 1 Dashed Line
 72
    65
 73
     2
 40
0.1
 49
0.05
 49
-0.05
  0
LTYPE
  2
DSH2
 70
     0
  3
CADAM Style2 Type 2 Dashed Line
 72
    65
 73
     2
 40
0.15
 49
0.09
 49
-0.06
  0
LTYPE
  2
DSH3
 70
     0
  3
CADAM Style2 Type 3 Dashed Line
 72
    65
 73
     2
 40
0.24
 49
0.15
 49
-0.09
  0
LTYPE
  2
DSH4
 70
     0
  3
CADAM Style2 Type 4 Dashed Line
 72
    65
 73
     2
 40
0.48
 49
0.39
 49
-0.09
  0
LTYPE
  2
DSH5
 70
     0
  3
CADAM Style2 Type 5 Dashed Line
 72
    65
 73
     2
 40
0.6600000000000003
 49
0.57
 49
-0.09
  0
LTYPE
  2
DSH6
 70
     0
  3
CADAM Style2 Type 6 Dashed Line
 72
    65
 73
     2
 40
1.139999999999999
 49
1.05
 49
-0.09
  0
LTYPE
  2
PL1
 70
     0
  3
Style 2 Type 1 Phantom Line
 72
    65
 73
     6
 40
1.2399999999999971
 49
1.0
 49
-0.06
 49
0.03
 49
-0.06
 49
0.03
 49
-0.06
  0
LTYPE
  2
PL2
 70
     0
  3
Style 2 Type 2 Phantom Line
 72
    65
 73
     6
 40
1.409999999999999
 49
1.05
 49
-0.06
 49
0.09
 49
-0.06
 49
0.09
 49
-0.06
  0
LTYPE
  2
PL3
 70
     0
  3
Style 2 Type 3 Phantom Line
 72
    65
 73
     6
 40
3.0800000000000001
 49
2.4900000000000002
 49
-0.09
 49
0.16
 49
-0.09
 49
0.16
 49
-0.09
  0
LTYPE
  2
CL1
 70
     0
  3
CADAM Style 2 Type 1 Center Line
 72
    65
 73
     4
 40
0.7800000000000003
 49
0.5400000000000002
 49
-0.06
 49
0.12
 49
-0.06
  0
LTYPE
  2
CL2
 70
     0
  3
CADAM Style 2 Type 2 Center Line
 72
    65
 73
     4
 40
1.179999999999999
 49
1.0
 49
-0.06
 49
0.06
 49
-0.06
  0
LTYPE
  2
CL3
 70
     0
  3
CADAM Style 2 Type 3 Center Line
 72
    65
 73
     4
 40
1.26
 49
1.05
 49
-0.06
 49
0.09
 49
-0.06
  0
LTYPE
  2
CL4
 70
     0
  3
CADAM Style 2 Type 4 Center Line
 72
    65
 73
     4
 40
1.98
 49
1.74
 49
-0.06
 49
0.12
 49
-0.06
  0
LTYPE
  2
CL5
 70
     0
  3
CADAM Style 2 Type 5 Center Line
 72
    65
 73
     4
 40
3.9199999999999982
 49
3.6099999999999981
 49
-0.08
 49
0.15
 49
-0.08
  0
LTYPE
  2
SBK1
 70
     0
  3
CADAM Style 2 Type 1 SetBack Line
 72
    65
 73
     8
 40
2.3700000000000001
 49
1.74
 49
-0.09
 49
0.09
 49
-0.09
 49
0.09
 49
-0.09
 49
0.09
 49
-0.09
  0
LTYPE
  2
SBK2
 70
     0
  3
CADAM Style 2 Type 2 SetBack Line
 72
    65
 73
     8
 40
3.3300000000000001
 49
2.4900000000000002
 49
-0.09
 49
0.16
 49
-0.09
 49
0.16
 49
-0.09
 49
0.16
 49
-0.09
  0
LTYPE
  2
STCH
 70
     0
  3
CADAM Style2 Stitch Line
 72
    65
 73
     2
 40
0.12
 49
0.03
 49
-0.09
  0
LTYPE
  2
MTCH
 70
     0
  3
CADAM Style2 Match Line
 72
    65
 73
     6
 40
2.8900000000000001
 49
2.5899999999999981
 49
-0.06
 49
0.06
 49
-0.06
 49
0.06
 49
-0.06
  0
LTYPE
  2
SLD
 70
     0
  3
CADAM Solid_EXT2
 72
    65
 73
     0
 40
0.0
  0
ENDTAB
  0
TABLE
  2
LAYER
 70
     1
  0
LAYER
  2
0
 70
     0
 62
     7
  6
C_SOLID_M
  0
ENDTAB
  0
TABLE
  2
STYLE
 70
     1
  0
STYLE
  2
STANDARD
 70
     0
 40
4.1672001374149312
 41
1.0
 50
0.0
 71
     0
 42
4.1672001374149312
  3
monotxt
  4
BIGFONT
  0
ENDTAB
  0
TABLE
  2
VIEW
 70
     0
  0
ENDTAB
  0
TABLE
  2
UCS
 70
     2
  0
UCS
  2
MO_001_VIEW_PV_P
 70
     0
 10
0.0
 20
0.0
 30
0.0
 11
1.0
 21
0.0
 31
0.0
 12
0.0
 22
1.0
 32
0.0
  0
UCS
  2
MO_001_VIEW_ZZ_P
 70
     0
 10
210.0
 20
-148.5
 30
0.0
 11
1.0
 21
0.0
 31
0.0
 12
0.0
 22
1.0
 32
0.0
  0
ENDTAB
  0
TABLE
  2
APPID
 70
     3
  0
APPID
  2
ACAD
 70
     0
  0
APPID
  2
PDELIB
 70
     0
  0
APPID
  2
ACAD_MLEADERVER
 70
     0
  0
ENDTAB
  0
TABLE
  2
DIMSTYLE
 70
     1
  0
DIMSTYLE
  2
STANDARD
 70
     0
  3

  4

  5

  6

  7

 40
1.0
 41
4.5700000000000003
 42
1.5800000000000001
 43
9.6500000000000004
 44
4.5700000000000003
 45
0.0
 46
0.0
 47
0.0
 48
0.0
140
4.1600000000000001
141
2.279999999999998
142
0.0
143
25.399999999999999
144
1.0
145
0.0
146
1.0
147
2.279999999999998
 71
     0
 72
     0
 73
     0
 74
     0
 75
     0
 76
     0
 77
     1
 78
     8
170
     0
171
     4
172
     1
173
     0
174
     1
175
     0
176
     0
177
     0
178
     0
  0
ENDTAB
  0
ENDSEC
  0
SECTION
  2
BLOCKS
  0
BLOCK
  8
0
  2
$MODEL_SPACE
 70
     0
 10
0.0
 20
0.0
 30
0.0
  3
$MODEL_SPACE
  1

  0
ENDBLK
  5
21
  8
0
  0
BLOCK
 67
     1
  8
0
  2
$PAPER_SPACE
 70
     0
 10
0.0
 20
0.0
 30
0.0
  3
$PAPER_SPACE
  1

  0
ENDBLK
  5
1D
 67
     1
  8
0
  0
BLOCK
  8
0
  2
*D0
 70
     1
 10
0.0
 20
0.0
 30
0.0
  3
*D0
  1

  0
LINE
  5
127
  8
0
 62
     0
 10
26.09999084472657
 20
42.9559326171875
 30
0.0
 11
-4.9000091552734331
 21
42.9559326171875
 31
0.0
  0
INSERT
  5
128
  8
0
  6
C_SOLID_L
 62
     0
  2
CCD_OARW
 10
26.09999084472657
 20
42.9559326171875
 30
0.0
 50
179.9999999999998
  0
INSERT
  5
129
  8
0
  6
C_SOLID_L
 62
     0
  2
CCD_OARWRT
 10
-4.9000091552734331
 20
42.9559326171875
 30
0.0
  0
LINE
  5
12A
  8
0
 62
     0
 10
26.09999084472657
 20
32.28277218341826
 30
0.0
 11
26.09999084472657
 21
45.241943359375
 31
0.0
  0
LINE
  5
12B
  8
0
 62
     0
 10
-4.9000091552734313
 20
32.28277218341826
 30
0.0
 11
-4.9000091552734331
 21
45.241943359375
 31
0.0
  0
TEXT
  5
12C
  8
0
 10
6.8547369241714513
 20
45.996706887245168
 30
0.0
 40
4.1671876907348633
  1
31
  0
ENDBLK
  5
98
  8
0
  0
BLOCK
  8
0
  2
CCD_OARW
 70
     0
 10
0.0
 20
0.0
 30
0.0
  3
CCD_OARW
  1

  0
POLYLINE
  5
12D
  8
0
 62
     0
 66
     1
 10
0.0
 20
0.0
 30
0.0
  0
VERTEX
  5
1A3
  8
0
 62
     0
 10
3.3182601204778792
 20
0.5835116150723609
 30
0.0
  0
VERTEX
  5
1A4
  8
0
 62
     0
 10
0.5079999923706055
 20
0.0
 30
0.0
  0
VERTEX
  5
1A5
  8
0
 62
     0
 10
3.3182601204778792
 20
-0.5835116150723609
 30
0.0
  0
SEQEND
  5
1A6
  8
0
 62
     0
  0
ENDBLK
  5
9B
  8
0
  0
BLOCK
  8
0
  2
CCD_OARWRT
 70
     0
 10
0.0
 20
0.0
 30
0.0
  3
CCD_OARWRT
  1

  0
POLYLINE
  5
132
  8
0
 62
     0
 66
     1
 10
0.0
 20
0.0
 30
0.0
  0
VERTEX
  5
1A7
  8
0
 62
     0
 10
3.3182601204778792
 20
0.5835116150723609
 30
0.0
  0
VERTEX
  5
1A8
  8
0
 62
     0
 10
0.5079999923706055
 20
0.0
 30
0.0
  0
VERTEX
  5
1A9
  8
0
 62
     0
 10
3.3182601204778792
 20
-0.5835116150723609
 30
0.0
  0
SEQEND
  5
1AA
  8
0
 62
     0
  0
ENDBLK
  5
9E
  8
0
  0
BLOCK
  8
0
  2
*D3
 70
     1
 10
0.0
 20
0.0
 30
0.0
  3
*D3
  1

  0
LINE
  5
137
  8
0
 62
     0
 10
127.17852783203119
 20
24.560272216796871
 30
0.0
 11
127.17852783203119
 21
-3.439727783203133
 31
0.0
  0
INSERT
  5
138
  8
0
  6
C_SOLID_L
 62
     0
  2
CCD_OARW
 10
127.17852783203119
 20
24.560272216796871
 30
0.0
 50
269.99999999999977
  0
INSERT
  5
139
  8
0
  6
C_SOLID_L
 62
     0
  2
CCD_OARWRT
 10
127.17852783203119
 20
-3.439727783203133
 30
0.0
 50
89.999999999999943
  0
LINE
  5
13A
  8
0
 62
     0
 10
95.722499966621399
 20
24.560272216796871
 30
0.0
 11
129.46452331542969
 21
24.560272216796871
 31
0.0
  0
LINE
  5
13B
  8
0
 62
     0
 10
95.722499966621399
 20
-3.4397277832031312
 30
0.0
 11
129.46452331542969
 21
-3.439727783203133
 31
0.0
  0
TEXT
  5
13C
  8
0
 10
124.1377535619736
 20
6.8197895288467443
 30
0.0
 40
4.1671876907348633
  1
28
 50
90.0
  0
ENDBLK
  5
A1
  8
0
  0
BLOCK
  8
0
  2
*D4
 70
     1
 10
0.0
 20
0.0
 30
0.0
  3
*D4
  1

  0
LINE
  5
13D
  8
0
 62
     0
 10
89.948348457800421
 20
23.490681294123071
 30
0.0
 11
92.051649506079215
 21
25.629869047323609
 31
0.0
  0
LINE
  5
13E
  8
0
 62
     0
 10
92.051649506079215
 20
25.629869047323609
 30
0.0
 11
96.503636771071797
 21
30.157816505187672
 31
0.0
  0
INSERT
  5
13F
  8
0
  6
C_SOLID_L
 62
     0
  2
CCD_IARWRT
 10
92.051649506079215
 20
25.629869047323609
 30
0.0
 50
225.48464658124141
  0
LINE
  5
140
  8
0
 62
     0
 10
92.051649506079215
 20
25.629869047323609
 30
0.0
 11
104.830111629678
 21
38.626358400052602
 31
0.0
  0
ENDBLK
  5
A4
  8
0
  0
BLOCK
  8
0
  2
CCD_IARWRT
 70
     0
 10
0.0
 20
0.0
 30
0.0
  3
CCD_IARWRT
  1

  0
POLYLINE
  5
141
  8
0
 62
     0
 66
     1
 10
0.0
 20
0.0
 30
0.0
  0
VERTEX
  5
1AB
  8
0
 62
     0
 10
-3.318260120477881
 20
-0.5835116150723501
 30
0.0
  0
VERTEX
  5
1AC
  8
0
 62
     0
 10
-0.5079999923706055
 20
0.0000000000000016
 30
0.0
  0
VERTEX
  5
1AD
  8
0
 62
     0
 10
-3.3182601204778761
 20
0.5835116150723715
 30
0.0
  0
SEQEND
  5
1AE
  8
0
 62
     0
  0
ENDBLK
  5
A7
  8
0
  0
BLOCK
  8
0
  2
*D6
 70
     1
 10
0.0
 20
0.0
 30
0.0
  3
*D6
  1

  0
LINE
  5
146
  8
0
 62
     0
 10
-29.074256896972638
 20
30.060272216796871
 30
0.0
 11
-29.07425689697266
 21
-8.9397277832031232
 31
0.0
  0
INSERT
  5
147
  8
0
  6
C_SOLID_L
 62
     0
  2
CCD_OARW
 10
-29.074256896972638
 20
30.060272216796871
 30
0.0
 50
269.99999999999977
  0
INSERT
  5
148
  8
0
  6
C_SOLID_L
 62
     0
  2
CCD_OARWRT
 10
-29.07425689697266
 20
-8.9397277832031232
 30
0.0
 50
89.999999999999943
  0
LINE
  5
149
  8
0
 62
     0
 10
-7.1225091218948346
 20
30.060272216796871
 30
0.0
 11
-31.360256195068359
 21
30.060272216796871
 31
0.0
  0
LINE
  5
14A
  8
0
 62
     0
 10
-7.1225091218948373
 20
-8.9397277832031161
 30
0.0
 11
-31.360256195068359
 21
-8.9397277832031232
 31
0.0
  0
INSERT
  5
14B
  8
0
  2
*U8
 10
0.0
 20
0.0
 30
0.0
  0
ENDBLK
  5
AA
  8
0
  0
BLOCK
  8
0
  2
*D7
 70
     1
 10
0.0
 20
0.0
 30
0.0
  3
*D7
  1

  0
LINE
  5
14C
  8
0
 62
     0
 10
26.09999084472657
 20
53.24114990234375
 30
0.0
 11
-11.480003356933571
 21
53.24114990234375
 31
0.0
  0
INSERT
  5
14D
  8
0
  6
C_SOLID_L
 62
     0
  2
CCD_OARW
 10
26.09999084472657
 20
53.24114990234375
 30
0.0
 50
179.9999999999998
  0
INSERT
  5
14E
  8
0
  6
C_SOLID_L
 62
     0
  2
CCD_OARWRT
 10
-11.480003356933571
 20
53.24114990234375
 30
0.0
  0
LINE
  5
14F
  8
0
 62
     0
 10
26.09999084472657
 20
32.28277218341826
 30
0.0
 11
26.09999084472657
 21
55.52716064453125
 31
0.0
  0
LINE
  5
150
  8
0
 62
     0
 10
-11.480003356933571
 20
28.93676388263702
 30
0.0
 11
-11.480003356933571
 21
55.52716064453125
 31
0.0
  0
TEXT
  5
151
  8
0
 10
-0.59525907039642
 20
56.281924172401418
 30
0.0
 40
4.1671876907348633
  1
37.6
  0
ENDBLK
  5
AD
  8
0
  0
BLOCK
  8
0
  2
*U8
 70
     1
 10
0.0
 20
0.0
 30
0.0
  3
*U8
  1

  0
TEXT
  5
1B0
  8
0
 10
-32.115031167030331
 20
4.3412371873855626
 30
0.0
 40
4.1671876907348633
  1
\U+2205
 50
90.0
  0
TEXT
  5
1B1
  8
0
 10
-32.115031167030331
 20
8.5084248781204241
 30
0.0
 40
4.1671876907348633
  1
40
 50
90.0
  0
ENDBLK
  5
1B3
  8
0
  0
ENDSEC
  0
SECTION
  2
ENTITIES
  0
LINE
  5
AE
  8
0
  6
CONTINUOUS
 10
-103.64381408691401
 20
4.5602722167968857
 30
0.0
 11
-103.64381408691401
 21
0.5098876953125127
 31
0.0
  0
ARC
  5
AF
  8
0
  6
CONTINUOUS
 10
-91.843811035156236
 20
10.56027221679687
 30
0.0
 40
15.5
 50
220.42191510301461
 51
264.44656192668111
  0
LINE
  5
B0
  8
0
  6
CONTINUOUS
 10
-100.64381408691401
 20
9.0602722167968874
 30
0.0
 11
-100.64381408691401
 21
5.5602722167968857
 31
0.0
  0
ARC
  5
B1
  8
0
  6
CONTINUOUS
 10
-101.64381408691401
 20
5.560272216796875
 30
0.0
 40
1.0
 50
269.99999749552182
 51
0.000010017912262
  0
ARC
  5
B2
  8
0
  6
CONTINUOUS
 10
-91.843811035156236
 20
10.56027221679687
 30
0.0
 40
15.5
 50
275.55343306436242
 51
354.44657424955619
  0
ARC
  5
B3
  8
0
  6
CONTINUOUS
 10
-101.64381408691401
 20
15.56027221679688
 30
0.0
 40
1.0
 50
0.000010017912262
 51
89.999988844099846
  0
LINE
  5
B4
  8
0
  6
CONTINUOUS
 10
-105.64381408691411
 20
5.0602722167968857
 30
0.0
 11
-102.14381408691411
 21
5.0602722167968857
 31
0.0
  0
ARC
  5
B5
  8
0
  6
CONTINUOUS
 10
-102.14381408691411
 20
6.060272216796875
 30
0.0
 40
1.0
 50
269.99999749552182
 51
0.000010017912262
  0
ARC
  5
B6
  8
0
  6
CONTINUOUS
 10
-102.14381408691411
 20
15.06027221679688
 30
0.0
 40
1.0
 50
0.000010017912262
 51
89.999988844099846
  0
LINE
  5
B7
  8
0
  6
CONTINUOUS
 10
-102.14381408691411
 20
16.060272216796889
 30
0.0
 11
-105.64381408691411
 21
16.060272216796889
 31
0.0
  0
LINE
  5
B8
  8
0
  6
CONTINUOUS
 10
-105.64381408691411
 20
16.560272216796889
 30
0.0
 11
-106.9499053955077
 21
16.560272216796889
 31
0.0
  0
ARC
  5
B9
  8
0
  6
CONTINUOUS
 10
-91.843811035156236
 20
10.56027221679687
 30
0.0
 40
16.254045486450192
 50
201.6625273400077
 51
158.3374863203706
  0
LINE
  5
BA
  8
0
  6
CONTINUOUS
 10
-106.9499053955077
 20
4.5602722167968857
 30
0.0
 11
-105.64381408691411
 21
4.5602722167968857
 31
0.0
  0
ARC
  5
BB
  8
0
  6
CONTINUOUS
 10
-91.843811035156236
 20
10.56027221679687
 30
0.0
 40
15.5
 50
5.5534441065770679
 51
84.446553275259205
  0
LINE
  5
BC
  8
0
  6
CONTINUOUS
 10
-101.64381408691401
 20
4.5602722167968857
 30
0.0
 11
-103.64381408691401
 21
4.5602722167968857
 31
0.0
  0
CIRCLE
  5
BD
  8
0
  6
CONTINUOUS
 10
-91.843811035156236
 20
10.56027221679687
 30
0.0
 40
1.25
  0
ARC
  5
BE
  8
0
  6
CONTINUOUS
 10
-91.843811035156236
 20
10.56027221679687
 30
0.0
 40
15.5
 50
95.553444903507938
 51
139.5780848969853
  0
LINE
  5
BF
  8
0
  6
CONTINUOUS
 10
-103.64381408691401
 20
20.610656738281261
 30
0.0
 11
-103.64381408691401
 21
16.560272216796889
 31
0.0
  0
LINE
  5
C0
  8
0
  6
CONTINUOUS
 10
-103.64381408691401
 20
16.560272216796889
 30
0.0
 11
-101.64381408691401
 21
16.560272216796889
 31
0.0
  0
LINE
  5
C1
  8
0
  6
CONTINUOUS
 10
-100.64381408691401
 20
15.560272216796889
 30
0.0
 11
-100.64381408691401
 21
12.060272216796889
 31
0.0
  0
LINE
  5
C2
  8
0
  6
CONTINUOUS
 10
-105.64381408691411
 20
4.5602722167968857
 30
0.0
 11
-105.64381408691411
 21
5.0602722167968857
 31
0.0
  0
LINE
  5
C3
  8
0
  6
CONTINUOUS
 10
-105.64381408691411
 20
16.060272216796889
 30
0.0
 11
-105.64381408691411
 21
16.560272216796889
 31
0.0
  0
ARC
  5
C4
  8
0
  6
CONTINUOUS
 10
-91.843811035156236
 20
10.56027221679687
 30
0.0
 40
16.79999923706055
 50
200.92483958888951
 51
159.0752013922453
  0
LINE
  5
C5
  8
0
  6
CONTINUOUS
 10
-107.5358505249023
 20
4.5602722167968857
 30
0.0
 11
-106.9499053955077
 21
4.5602722167968857
 31
0.0
  0
LINE
  5
C6
  8
0
  6
CONTINUOUS
 10
-106.9499053955077
 20
16.560272216796889
 30
0.0
 11
-107.5358505249023
 21
16.560272216796889
 31
0.0
  0
LINE
  5
C7
  8
0
  6
CONTINUOUS
 10
-104.64381408691401
 20
16.060272216796889
 30
0.0
 11
-104.64381408691401
 21
5.0602722167968857
 31
0.0
  0
CIRCLE
  5
C8
  8
0
  6
CONTINUOUS
 10
-103.2438125610352
 20
8.560272216796875
 30
0.0
 40
0.5
  0
ARC
  5
C9
  8
0
  6
CONTINUOUS
 10
-103.2438125610352
 20
12.56027221679688
 30
0.0
 40
0.5
 50
180.00000865142201
 51
152.22244527721489
  0
CIRCLE
  5
CA
  8
0
  6
CONTINUOUS
 10
-97.147117614746094
 20
15.86358642578125
 30
0.0
 40
1.5
  0
CIRCLE
  5
CB
  8
0
  6
CONTINUOUS
 10
-86.540512084960937
 20
5.2569580078125
 30
0.0
 40
1.5
  0
CIRCLE
  5
CC
  8
0
  6
CONTINUOUS
 10
-97.147117614746094
 20
5.2569580078125
 30
0.0
 40
1.5
  0
CIRCLE
  5
CD
  8
0
  6
CONTINUOUS
 10
-86.540512084960937
 20
15.86358642578125
 30
0.0
 40
1.5
  0
ARC
  5
CE
  8
0
  6
CONTINUOUS
 10
-91.843811035156236
 20
10.56027221679687
 30
0.0
 40
16.79999923706055
 50
159.0751740714885
 51
200.924835946424
  0
CIRCLE
  5
CF
  8
0
  6
CONTINUOUS
 10
-86.540512084960937
 20
5.2569580078125
 30
0.0
 40
1.0
  0
LINE
  5
D0
  8
0
  6
C_CENTER_L
 10
-91.843811035156236
 20
-14.158843994140611
 30
0.0
 11
-91.843811035156236
 21
35.920745849609389
 31
0.0
  0
LINE
  5
D1
  8
0
  6
C_CENTER_L
 10
-68.310066223144531
 20
10.56027221679687
 30
0.0
 11
-116.6358947753904
 21
10.560272216796889
 31
0.0
  0
ARC
  5
D2
  8
0
  6
CONTINUOUS
 10
-91.843811035156236
 20
10.56027221679687
 30
0.0
 40
16.69999885559082
 50
201.0560475228456
 51
159.0752013922453
  0
LINE
  5
D3
  8
0
  6
CONTINUOUS
 10
-93.343811035156236
 20
13.682769775390639
 30
0.0
 11
-93.343811035156236
 21
25.987518310546889
 31
0.0
  0
LINE
  5
D4
  8
0
  6
CONTINUOUS
 10
-90.343811035156236
 20
25.987518310546889
 30
0.0
 11
-90.343811035156236
 21
13.682769775390639
 31
0.0
  0
LINE
  5
D5
  8
0
  6
CONTINUOUS
 10
-88.7213134765625
 20
12.060272216796889
 30
0.0
 11
-76.41656494140625
 21
12.06027221679688
 31
0.0
  0
LINE
  5
D6
  8
0
  6
CONTINUOUS
 10
-76.41656494140625
 20
9.0602722167968839
 30
0.0
 11
-88.721305847167969
 21
9.0602722167968874
 31
0.0
  0
LINE
  5
D7
  8
0
  6
CONTINUOUS
 10
-90.343811035156236
 20
7.4377746582031357
 30
0.0
 11
-90.343811035156236
 21
-4.8670043945312376
 31
0.0
  0
LINE
  5
D8
  8
0
  6
CONTINUOUS
 10
-93.343811035156236
 20
-4.8670043945312376
 30
0.0
 11
-93.343811035156236
 21
7.4377746582031383
 31
0.0
  0
LINE
  5
D9
  8
0
  6
CONTINUOUS
 10
-94.966316223144517
 20
9.0602722167968874
 30
0.0
 11
-100.64381408691401
 21
9.0602722167968874
 31
0.0
  0
LINE
  5
DA
  8
0
  6
CONTINUOUS
 10
-100.64381408691401
 20
12.060272216796889
 30
0.0
 11
-94.966308593750014
 21
12.060272216796889
 31
0.0
  0
ARC
  5
DB
  8
0
  6
CONTINUOUS
 10
-91.843811035156236
 20
10.56027221679687
 30
0.0
 40
3.0
 50
308.68217621833662
 51
321.31797154134682
  0
ARC
  5
DC
  8
0
  6
CONTINUOUS
 10
-91.843811035156236
 20
10.56027221679687
 30
0.0
 40
3.0
 50
38.682212873760683
 51
51.31781695147415
  0
ARC
  5
DD
  8
0
  6
CONTINUOUS
 10
-91.843811035156236
 20
10.56027221679687
 30
0.0
 40
3.0
 50
128.6821846423876
 51
141.31778872010079
  0
ARC
  5
DE
  8
0
  6
CONTINUOUS
 10
-91.843811035156236
 20
10.56027221679687
 30
0.0
 40
3.0
 50
218.6820336949805
 51
231.31782901799059
  0
ARC
  5
DF
  8
0
  6
CONTINUOUS
 10
-89.343811035156236
 20
7.437774658203125
 30
0.0
 40
1.0
 50
128.6821983027659
 51
180.00000500895629
  0
ARC
  5
E0
  8
0
  6
CONTINUOUS
 10
-88.721305847167969
 20
8.060272216796875
 30
0.0
 40
1.0
 50
89.999995674288996
 51
141.31788434274941
  0
ARC
  5
E1
  8
0
  6
CONTINUOUS
 10
-94.343811035156236
 20
7.437774658203125
 30
0.0
 40
1.0
 50
0.0000086514222091
 51
51.317803291095821
  0
ARC
  5
E2
  8
0
  6
CONTINUOUS
 10
-94.966316223144517
 20
8.060272216796875
 30
0.0
 40
1.0
 50
38.682117251112317
 51
89.999995674288996
  0
ARC
  5
E3
  8
0
  6
CONTINUOUS
 10
-94.966308593750014
 20
13.06027221679688
 30
0.0
 40
1.0
 50
269.99999749552182
 51
321.31780761680682
  0
ARC
  5
E4
  8
0
  6
CONTINUOUS
 10
-94.343811035156236
 20
13.682769775390611
 30
0.0
 40
1.0
 50
308.68217621833662
 51
0.000010017912262
  0
ARC
  5
E5
  8
0
  6
CONTINUOUS
 10
-89.343811035156236
 20
13.682769775390611
 30
0.0
 40
1.0
 50
180.00000865142201
 51
231.31782901799059
  0
ARC
  5
E6
  8
0
  6
CONTINUOUS
 10
-88.7213134765625
 20
13.06027221679688
 30
0.0
 40
1.0
 50
218.68218395914229
 51
269.99999749552182
  0
LINE
  5
E7
  8
0
  6
CONTINUOUS
 10
-101.14381408691411
 20
6.0602722167968883
 30
0.0
 11
-101.14381408691411
 21
15.060272216796889
 31
0.0
  0
LINE
  5
E8
  8
0
  6
CONTINUOUS
 10
-105.64381408691411
 20
5.0602722167968857
 30
0.0
 11
-105.64381408691411
 21
16.560272216796889
 31
0.0
  0
LINE
  5
E9
  8
0
  6
C_CENTER_L
 10
68.563888549804688
 20
10.56027221679687
 30
0.0
 11
114.6509704589844
 21
10.56027221679687
 31
0.0
  0
LINE
  5
EA
  8
0
  6
C_CENTER_L
 10
91.0
 20
-14.18928527832032
 30
0.0
 11
91.0
 21
34.635650634765611
 31
0.0
  0
CIRCLE
  5
EB
  8
0
  6
CONTINUOUS
 10
91.0
 20
10.56027221679687
 30
0.0
 40
17.700000762939439
  0
CIRCLE
  5
EC
  8
0
  6
CONTINUOUS
 10
91.0
 20
-3.439727783203125
 30
0.0
 40
1.5
  0
CIRCLE
  5
ED
  8
0
  6
CONTINUOUS
 10
91.0
 20
24.560272216796879
 30
0.0
 40
1.5
  0
ARC
  5
EE
  8
0
  6
C_DASHED_L
 10
91.0
 20
24.560272216796879
 30
0.0
 40
1.299999952316284
 50
74.555913432514657
 51
344.74456394063583
  0
ARC
  5
EF
  8
0
  6
C_DASHED_L
 10
91.0
 20
-3.439727783203125
 30
0.0
 40
1.299999952316284
 50
78.533767793805907
 51
342.36459818472309
  0
LINE
  5
F0
  8
0
  6
C_CENTER_L
 10
88.499999999999986
 20
-3.4397277832031281
 30
0.0
 11
93.499999999999986
 21
-3.4397277832031312
 31
0.0
  0
LINE
  5
F1
  8
0
  6
C_CENTER_L
 10
88.499999999999986
 20
24.560272216796871
 30
0.0
 11
93.499999999999986
 21
24.560272216796871
 31
0.0
  0
CIRCLE
  5
F2
  8
0
  6
CONTINUOUS
 10
91.0
 20
10.56027221679687
 30
0.0
 40
2.099999904632567
  0
LINE
  5
F3
  8
0
  6
CONTINUOUS
 10
26.099990844726559
 20
10.56027221679687
 30
0.0
 11
26.09999084472657
 21
30.060272216796871
 31
0.0
  0
LINE
  5
F4
  8
0
  6
CONTINUOUS
 10
-4.9000091552734357
 20
30.060272216796871
 30
0.0
 11
26.09999084472657
 21
30.060272216796871
 31
0.0
  0
LINE
  5
F5
  8
0
  6
CONTINUOUS
 10
-4.9000091552734384
 20
7.21832275390625
 30
0.0
 11
-4.9000091552734357
 21
30.060272216796871
 31
0.0
  0
LINE
  5
F6
  8
0
  6
CONTINUOUS
 10
-4.9000091552734384
 20
-8.939727783203125
 30
0.0
 11
26.099990844726559
 21
-8.9397277832031268
 31
0.0
  0
LINE
  5
F7
  8
0
  6
CONTINUOUS
 10
-4.9000091552734384
 20
-8.939727783203125
 30
0.0
 11
-4.9000091552734357
 21
10.56027221679687
 31
0.0
  0
LINE
  5
F8
  8
0
  6
C_CENTER_L
 10
-15.849937438964821
 20
10.56027221679687
 30
0.0
 11
31.111839294433601
 21
10.56027221679685
 31
0.0
  0
LINE
  5
F9
  8
0
  6
CONTINUOUS
 10
26.099990844726559
 20
-8.9397277832031268
 30
0.0
 11
26.099990844726559
 21
10.56027221679687
 31
0.0
  0
LINE
  5
FA
  8
0
  6
CONTINUOUS
 10
-11.480010986328089
 20
10.56027221679687
 30
0.0
 11
-11.480010986328089
 21
13.56027221679688
 31
0.0
  0
LINE
  5
FB
  8
0
  6
CONTINUOUS
 10
-11.480010986328089
 20
7.560272216796875
 30
0.0
 11
-11.480010986328089
 21
10.56027221679687
 31
0.0
  0
CIRCLE
  5
FC
  8
0
  6
CONTINUOUS
 10
91.0
 20
10.56027221679687
 30
0.0
 40
20.0
  0
LINE
  5
FD
  8
0
  6
CONTINUOUS
 10
-9.9800033569335902
 20
-6.13970947265625
 30
0.0
 11
-4.9000091552734384
 21
-6.13970947265625
 31
0.0
  0
LINE
  5
FE
  8
0
  6
CONTINUOUS
 10
-11.480000831681179
 20
-5.5937295093061152
 30
0.0
 11
-9.9800350403394287
 21
-6.1396702840636959
 31
0.0
  0
LINE
  5
FF
  8
0
  6
CONTINUOUS
 10
-11.480003356933571
 20
11.81027221679687
 30
0.0
 11
-11.480003356933571
 21
26.714263916015621
 31
0.0
  0
LINE
  5
100
  8
0
  6
CONTINUOUS
 10
-11.480003356933571
 20
-5.593719482421875
 30
0.0
 11
-11.480003356933571
 21
9.3102722167968768
 31
0.0
  0
LINE
  5
101
  8
0
  6
CONTINUOUS
 10
-11.47998877099559
 20
26.714199496413929
 30
0.0
 11
-9.9800229516487864
 21
27.260140281364471
 31
0.0
  0
LINE
  5
102
  8
0
  6
CONTINUOUS
 10
-9.9800033569335636
 20
27.260253906250011
 30
0.0
 11
-4.9000091552734073
 21
27.260253906250011
 31
0.0
  0
CIRCLE
  5
103
  8
0
  6
CONTINUOUS
 10
-91.843811035156236
 20
10.56027221679687
 30
0.0
 40
20.0
  0
LINE
  5
104
  8
0
  6
CONTINUOUS
 10
-20.98000335693359
 20
6.2569580078125
 30
0.0
 11
-11.480003356933571
 21
6.2569580078125
 31
0.0
  0
LINE
  5
105
  8
0
  6
CONTINUOUS
 10
-20.98000335693359
 20
4.2569580078125
 30
0.0
 11
-11.480003356933571
 21
4.2569580078125
 31
0.0
  0
LINE
  5
106
  8
0
  6
CONTINUOUS
 10
-21.48000335693359
 20
4.7569580078125
 30
0.0
 11
-21.48000335693359
 21
5.7569580078125
 31
0.0
  0
ARC
  5
107
  8
0
  6
CONTINUOUS
 10
-20.98000335693359
 20
4.7569580078125
 30
0.0
 40
0.5
 50
180.00000865142201
 51
269.99999749552182
  0
ARC
  5
108
  8
0
  6
CONTINUOUS
 10
-20.98000335693359
 20
5.7569580078125
 30
0.0
 40
0.5
 50
90.000002504478175
 51
180.00000500895629
  0
CIRCLE
  5
10A
  8
0
  6
CONTINUOUS
 10
-91.843811035156236
 20
10.56027221679687
 30
0.0
 40
18.200000762939439
  0
ENDSEC
  0
EOF
