  0
SECTION
  2
HEADER
  9
$ACADVER
  1
AC1009
  9
$INSBASE
 10
0.0
 20
0.0
 30
0.0
  9
$EXTMIN
 10
-127.6358947753905
 20
-14.18927001953125
 30
0.0
  9
$EXTMAX
 10
140.6509704589844
 20
35.920745849609382
 30
0.0
  9
$LIMMIN
 10
-154.70832824707031
 20
-148.5
  9
$LIMMAX
 10
210.0
 20
61.565097808837891
  9
$ORTHOMODE
 70
     0
  9
$REGENMODE
 70
     1
  9
$FILLMODE
 70
     1
  9
$QTEXTMODE
 70
     0
  9
$MIRRTEXT
 70
     1
  9
$DRAGMODE
 70
     2
  9
$LTSCALE
 40
1.0
  9
$OSMODE
 70
    37
  9
$ATTMODE
 70
     1
  9
$TEXTSIZE
 40
4.1672001374149312
  9
$TRACEWID
 40
0.05
  9
$TEXTSTYLE
  7
STANDARD
  9
$CLAYER
  8
0
  9
$CELTYPE
  6
BYLAYER
  9
$CECOLOR
 62
   256
  9
$DIMSCALE
 40
1.0
  9
$DIMASZ
 40
4.5700000000000003
  9
$DIMEXO
 40
1.5800000000000001
  9
$DIMDLI
 40
9.6500000000000004
  9
$DIMRND
 40
0.0
  9
$DIMDLE
 40
0.0
  9
$DIMEXE
 40
4.5700000000000003
  9
$DIMTP
 40
0.0
  9
$DIMTM
 40
0.0
  9
$DIMTXT
 40
4.1600000000000001
  9
$DIMCEN
 40
2.279999999999998
  9
$DIMTSZ
 40
0.0
  9
$DIMTOL
 70
     0
  9
$DIMLIM
 70
     0
  9
$DIMTIH
 70
     0
  9
$DIMTOH
 70
     0
  9
$DIMSE1
 70
     0
  9
$DIMSE2
 70
     0
  9
$DIMTAD
 70
     1
  9
$DIMZIN
 70
     8
  9
$DIMBLK
  1

  9
$DIMASO
 70
     1
  9
$DIMSHO
 70
     1
  9
$DIMPOST
  1

  9
$DIMAPOST
  1

  9
$DIMALT
 70
     0
  9
$DIMALTD
 70
     4
  9
$DIMALTF
 40
25.399999999999999
  9
$DIMLFAC
 40
1.0
  9
$DIMTOFL
 70
     1
  9
$DIMTVP
 40
0.0
  9
$DIMTIX
 70
     1
  9
$DIMSOXD
 70
     0
  9
$DIMSAH
 70
     0
  9
$DIMBLK1
  1

  9
$DIMBLK2
  1

  9
$DIMSTYLE
  2
STANDARD
  9
$DIMCLRD
 70
     0
  9
$DIMCLRE
 70
     0
  9
$DIMCLRT
 70
     0
  9
$DIMTFAC
 40
1.0
  9
$DIMGAP
 40
2.279999999999998
  9
$LUNITS
 70
     2
  9
$LUPREC
 70
     6
  9
$SKETCHINC
 40
0.1
  9
$FILLETRAD
 40
0.5
  9
$AUNITS
 70
     0
  9
$AUPREC
 70
     4
  9
$MENU
  1
.
  9
$ELEVATION
 40
0.0
  9
$PELEVATION
 40
0.0
  9
$THICKNESS
 40
0.0
  9
$LIMCHECK
 70
     0
  9
$BLIPMODE
 70
     0
  9
$CHAMFERA
 40
0.0
  9
$CHAMFERB
 40
0.0
  9
$SKPOLY
 70
     0
  9
$TDCREATE
 40
2447893.375
  9
$TDUPDATE
 40
2459165.5258404161
  9
$TDINDWG
 40
0.0040586343
  9
$TDUSRTIMER
 40
0.0040582639
  9
$USRTIMER
 70
     1
  9
$ANGBASE
 50
0.0
  9
$ANGDIR
 70
     0
  9
$PDMODE
 70
     0
  9
$PDSIZE
 40
0.0
  9
$PLINEWID
 40
0.0
  9
$COORDS
 70
     0
  9
$SPLFRAME
 70
     0
  9
$SPLINETYPE
 70
     6
  9
$SPLINESEGS
 70
     8
  9
$ATTDIA
 70
     0
  9
$ATTREQ
 70
     1
  9
$HANDLING
 70
 10241
  9
$HANDSEED
  5
372
  9
$SURFTAB1
 70
     6
  9
$SURFTAB2
 70
     6
  9
$SURFTYPE
 70
     6
  9
$SURFU
 70
     6
  9
$SURFV
 70
     6
  9
$UCSNAME
  2

  9
$UCSORG
 10
0.0
 20
0.0
 30
0.0
  9
$UCSXDIR
 10
1.0
 20
0.0
 30
0.0
  9
$UCSYDIR
 10
0.0
 20
1.0
 30
0.0
  9
$PUCSNAME
  2

  9
$PUCSORG
 10
0.0
 20
0.0
 30
0.0
  9
$PUCSXDIR
 10
1.0
 20
0.0
 30
0.0
  9
$PUCSYDIR
 10
0.0
 20
1.0
 30
0.0
  9
$USERI1
 70
     0
  9
$USERI2
 70
     0
  9
$USERI3
 70
     0
  9
$USERI4
 70
     0
  9
$USERI5
 70
     0
  9
$USERR1
 40
0.0
  9
$USERR2
 40
0.0
  9
$USERR3
 40
0.0
  9
$USERR4
 40
0.0
  9
$USERR5
 40
0.0
  9
$WORLDVIEW
 70
     1
  9
$SHADEDGE
 70
     3
  9
$SHADEDIF
 70
    70
  9
$TILEMODE
 70
     1
  9
$MAXACTVP
 70
    64
  9
$PLIMCHECK
 70
     0
  9
$PEXTMIN
 10
-154.70832824707031
 20
-148.5
 30
1.0000000000000000E+020
  9
$PEXTMAX
 10
210.0
 20
61.565097808837891
 30
-1.0000000000000000E+020
  9
$PLIMMIN
 10
0.0
 20
0.0
  9
$PLIMMAX
 10
12.0
 20
9.0
  9
$UNITMODE
 70
     0
  9
$VISRETAIN
 70
     0
  9
$PLINEGEN
 70
     0
  9
$PSLTSCALE
 70
     1
  0
ENDSEC
  0
SECTION
  2
TABLES
  0
TABLE
  2
VPORT
 70
     2
  0
VPORT
  2
*ACTIVE
 70
     0
 10
0.0
 20
0.0
 11
1.0
 21
1.0
 12
6.511431895593204
 22
24.4452601088439
 13
0.0
 23
0.0
 14
6.3499999046325666
 24
6.3499999046325666
 15
6.3499999046325666
 25
6.3499999046325666
 16
0.0
 26
0.0
 36
1.0
 17
0.0
 27
0.0
 37
0.0
 40
184.94627451825281
 41
1.458837772397094
 42
50.0
 43
0.0
 44
0.0
 50
0.0
 51
0.0
 71
     0
 72
   100
 73
     1
 74
     1
 75
     0
 76
     0
 77
     0
 78
     0
  0
ENDTAB
  0
TABLE
  2
LTYPE
 70
    36
  0
LTYPE
  2
CONTINUOUS
 70
     0
  3
DXF Default line type
 72
    65
 73
     0
 40
0.0
  0
LTYPE
  2
DASHED
 70
     0
  3
DXF Dashed
 72
    65
 73
     2
 40
0.75
 49
0.5
 49
-0.25
  0
LTYPE
  2
HIDDEN
 70
     0
  3
DXF Hidden
 72
    65
 73
     2
 40
0.375
 49
0.25
 49
-0.125
  0
LTYPE
  2
CENTER
 70
     0
  3
DXF Center
 72
    65
 73
     4
 40
2.0
 49
1.25
 49
-0.25
 49
0.25
 49
-0.25
  0
LTYPE
  2
PHANTOM
 70
     0
  3
DXF Phantom
 72
    65
 73
     6
 40
2.5
 49
1.25
 49
-0.25
 49
0.25
 49
-0.25
 49
0.25
 49
-0.25
  0
LTYPE
  2
DOT
 70
     0
  3
DXF DOT
 72
    65
 73
     2
 40
0.25
 49
0.0
 49
-0.25
  0
LTYPE
  2
DASHDOT
 70
     0
  3
DXF Dash Dot
 72
    65
 73
     4
 40
1.0
 49
0.5
 49
-0.25
 49
0.0
 49
-0.25
  0
LTYPE
  2
BORDER
 70
     0
  3
DXF Border
 72
    65
 73
     6
 40
1.75
 49
0.5
 49
-0.25
 49
0.5
 49
-0.25
 49
0.0
 49
-0.25
  0
LTYPE
  2
DIVIDE
 70
     0
  3
DXF Divide
 72
    65
 73
     6
 40
1.25
 49
0.5
 49
-0.25
 49
0.0
 49
-0.25
 49
0.0
 49
-0.25
  0
LTYPE
  2
C_SOLID_L
 70
     0
  3
CADAM Solid Light
 72
    65
 73
     0
 40
0.0
  0
LTYPE
  2
C_SOLID_M
 70
     0
  3
CADAM Solid Medium
 72
    65
 73
     0
 40
0.0
  0
LTYPE
  2
C_SOLID_H
 70
     0
  3
CADAM Solid Heavy
 72
    65
 73
     0
 40
0.0
  0
LTYPE
  2
C_DASHED_L
 70
     0
  3
CADAM Dashed Light
 72
    65
 73
     2
 40
0.375
 49
0.25
 49
-0.125
  0
LTYPE
  2
C_DASHED_M
 70
     0
  3
CADAM Dashed Medium
 72
    65
 73
     2
 40
0.225
 49
0.075
 49
-0.15
  0
LTYPE
  2
C_CENTER_L
 70
     0
  3
CADAM Center Light
 72
    65
 73
     5
 40
3.4500000000000002
 49
1.5
 49
-0.15
 49
0.15
 49
-0.15
 49
1.5
  0
LTYPE
  2
C_PHANTOM_L
 70
     0
  3
CADAM Phantom Light
 72
    65
 73
     7
 40
3.75
 49
1.5
 49
-0.15
 49
0.15
 49
-0.15
 49
0.15
 49
-0.15
 49
1.5
  0
LTYPE
  2
C_NC
 70
     0
  3
CADAM NC
 72
    65
 73
     0
 40
0.0
  0
LTYPE
  2
DSH1
 70
     0
  3
CADAM Style2 Type 1 Dashed Line
 72
    65
 73
     2
 40
0.1
 49
0.05
 49
-0.05
  0
LTYPE
  2
DSH2
 70
     0
  3
CADAM Style2 Type 2 Dashed Line
 72
    65
 73
     2
 40
0.15
 49
0.09
 49
-0.06
  0
LTYPE
  2
DSH3
 70
     0
  3
CADAM Style2 Type 3 Dashed Line
 72
    65
 73
     2
 40
0.24
 49
0.15
 49
-0.09
  0
LTYPE
  2
DSH4
 70
     0
  3
CADAM Style2 Type 4 Dashed Line
 72
    65
 73
     2
 40
0.48
 49
0.39
 49
-0.09
  0
LTYPE
  2
DSH5
 70
     0
  3
CADAM Style2 Type 5 Dashed Line
 72
    65
 73
     2
 40
0.6600000000000003
 49
0.57
 49
-0.09
  0
LTYPE
  2
DSH6
 70
     0
  3
CADAM Style2 Type 6 Dashed Line
 72
    65
 73
     2
 40
1.139999999999999
 49
1.05
 49
-0.09
  0
LTYPE
  2
PL1
 70
     0
  3
Style 2 Type 1 Phantom Line
 72
    65
 73
     6
 40
1.2399999999999971
 49
1.0
 49
-0.06
 49
0.03
 49
-0.06
 49
0.03
 49
-0.06
  0
LTYPE
  2
PL2
 70
     0
  3
Style 2 Type 2 Phantom Line
 72
    65
 73
     6
 40
1.409999999999999
 49
1.05
 49
-0.06
 49
0.09
 49
-0.06
 49
0.09
 49
-0.06
  0
LTYPE
  2
PL3
 70
     0
  3
Style 2 Type 3 Phantom Line
 72
    65
 73
     6
 40
3.0800000000000001
 49
2.4900000000000002
 49
-0.09
 49
0.16
 49
-0.09
 49
0.16
 49
-0.09
  0
LTYPE
  2
CL1
 70
     0
  3
CADAM Style 2 Type 1 Center Line
 72
    65
 73
     4
 40
0.7800000000000003
 49
0.5400000000000002
 49
-0.06
 49
0.12
 49
-0.06
  0
LTYPE
  2
CL2
 70
     0
  3
CADAM Style 2 Type 2 Center Line
 72
    65
 73
     4
 40
1.179999999999999
 49
1.0
 49
-0.06
 49
0.06
 49
-0.06
  0
LTYPE
  2
CL3
 70
     0
  3
CADAM Style 2 Type 3 Center Line
 72
    65
 73
     4
 40
1.26
 49
1.05
 49
-0.06
 49
0.09
 49
-0.06
  0
LTYPE
  2
CL4
 70
     0
  3
CADAM Style 2 Type 4 Center Line
 72
    65
 73
     4
 40
1.98
 49
1.74
 49
-0.06
 49
0.12
 49
-0.06
  0
LTYPE
  2
CL5
 70
     0
  3
CADAM Style 2 Type 5 Center Line
 72
    65
 73
     4
 40
3.9199999999999982
 49
3.6099999999999981
 49
-0.08
 49
0.15
 49
-0.08
  0
LTYPE
  2
SBK1
 70
     0
  3
CADAM Style 2 Type 1 SetBack Line
 72
    65
 73
     8
 40
2.3700000000000001
 49
1.74
 49
-0.09
 49
0.09
 49
-0.09
 49
0.09
 49
-0.09
 49
0.09
 49
-0.09
  0
LTYPE
  2
SBK2
 70
     0
  3
CADAM Style 2 Type 2 SetBack Line
 72
    65
 73
     8
 40
3.3300000000000001
 49
2.4900000000000002
 49
-0.09
 49
0.16
 49
-0.09
 49
0.16
 49
-0.09
 49
0.16
 49
-0.09
  0
LTYPE
  2
STCH
 70
     0
  3
CADAM Style2 Stitch Line
 72
    65
 73
     2
 40
0.12
 49
0.03
 49
-0.09
  0
LTYPE
  2
MTCH
 70
     0
  3
CADAM Style2 Match Line
 72
    65
 73
     6
 40
2.8900000000000001
 49
2.5899999999999981
 49
-0.06
 49
0.06
 49
-0.06
 49
0.06
 49
-0.06
  0
LTYPE
  2
SLD
 70
     0
  3
CADAM Solid_EXT2
 72
    65
 73
     0
 40
0.0
  0
ENDTAB
  0
TABLE
  2
LAYER
 70
     2
  0
LAYER
  2
0
 70
     0
 62
     7
  6
C_SOLID_M
  0
LAYER
  2
DEFPOINTS
 70
     0
 62
     7
  6
CONTINUOUS
  0
ENDTAB
  0
TABLE
  2
STYLE
 70
     1
  0
STYLE
  2
STANDARD
 70
     0
 40
4.1672001374149312
 41
1.0
 50
0.0
 71
     0
 42
4.1672001374149312
  3
monotxt
  4
BIGFONT
  0
ENDTAB
  0
TABLE
  2
VIEW
 70
     0
  0
ENDTAB
  0
TABLE
  2
UCS
 70
     2
  0
UCS
  2
MO_001_VIEW_PV_P
 70
     0
 10
0.0
 20
0.0
 30
0.0
 11
1.0
 21
0.0
 31
0.0
 12
0.0
 22
1.0
 32
0.0
  0
UCS
  2
MO_001_VIEW_ZZ_P
 70
     0
 10
210.0
 20
-148.5
 30
0.0
 11
1.0
 21
0.0
 31
0.0
 12
0.0
 22
1.0
 32
0.0
  0
ENDTAB
  0
TABLE
  2
APPID
 70
     3
  0
APPID
  2
ACAD
 70
     0
  0
APPID
  2
PDELIB
 70
     0
  0
APPID
  2
ACAD_MLEADERVER
 70
     0
  0
ENDTAB
  0
TABLE
  2
DIMSTYLE
 70
     1
  0
DIMSTYLE
  2
STANDARD
 70
     0
  3

  4

  5

  6

  7

 40
1.0
 41
4.5700000000000003
 42
1.5800000000000001
 43
9.6500000000000004
 44
4.5700000000000003
 45
0.0
 46
0.0
 47
0.0
 48
0.0
140
4.1600000000000001
141
2.279999999999998
142
0.0
143
25.399999999999999
144
1.0
145
0.0
146
1.0
147
2.279999999999998
 71
     0
 72
     0
 73
     0
 74
     0
 75
     0
 76
     0
 77
     1
 78
     8
170
     0
171
     4
172
     1
173
     0
174
     1
175
     0
176
     0
177
     0
178
     0
  0
ENDTAB
  0
ENDSEC
  0
SECTION
  2
BLOCKS
  0
BLOCK
  8
0
  2
$MODEL_SPACE
 70
     0
 10
0.0
 20
0.0
 30
0.0
  3
$MODEL_SPACE
  1

  0
ENDBLK
  5
21
  8
0
  0
BLOCK
 67
     1
  8
0
  2
$PAPER_SPACE
 70
     0
 10
0.0
 20
0.0
 30
0.0
  3
$PAPER_SPACE
  1

  0
ENDBLK
  5
1D
 67
     1
  8
0
  0
BLOCK
  8
0
  2
MO_001_S_4_20_
 70
     0
 10
0.0
 20
0.0
 30
0.0
  3
MO_001_S_4_20_
  1

  0
POINT
  5
1CB
  8
0
  6
CONTINUOUS
 10
0.0
 20
0.0
 30
0.0
  0
POINT
  5
1CC
  8
0
  6
CONTINUOUS
 10
0.0
 20
-10.0
 30
0.0
  0
LINE
  5
1CD
  8
0
  6
CONTINUOUS
 10
-2.8867511749267578
 20
-4.999999614041144
 30
0.0
 11
0.0
 21
0.0
 31
0.0
  0
LINE
  5
1CE
  8
0
  6
CONTINUOUS
 10
0.0
 20
0.0
 30
0.0
 11
2.8867511749267578
 21
-4.999999614041144
 31
0.0
  0
LINE
  5
1CF
  8
0
  6
CONTINUOUS
 10
-2.8867511749267578
 20
-5.0
 30
0.0
 11
-1.0
 21
-5.0
 31
0.0
  0
LINE
  5
1D0
  8
0
  6
CONTINUOUS
 10
1.0
 20
-5.0
 30
0.0
 11
1.0
 21
-10.0
 31
0.0
  0
LINE
  5
1D1
  8
0
  6
CONTINUOUS
 10
-1.0
 20
-5.0
 30
0.0
 11
-1.0
 21
-10.0
 31
0.0
  0
LINE
  5
1D2
  8
0
  6
CONTINUOUS
 10
-1.0
 20
-10.0
 30
0.0
 11
1.0
 21
-10.0
 31
0.0
  0
LINE
  5
1D3
  8
0
  6
CONTINUOUS
 10
1.0
 20
-5.0
 30
0.0
 11
2.8867511749267578
 21
-5.0
 31
0.0
  0
ENDBLK
  5
98
  8
0
  0
BLOCK
  8
0
  2
*D1
 70
     1
 10
0.0
 20
0.0
 30
0.0
  3
*D1
  1

  0
LINE
  5
2DE
  8
0
  6
CONTINUOUS
 62
     0
 10
56.0999755859375
 20
31.64027221679688
 30
0.0
 11
56.0999755859375
 21
47.525932617187493
 31
0.0
  0
LINE
  5
2DF
  8
0
  6
CONTINUOUS
 62
     0
 10
25.0999755859375
 20
31.64027221679688
 30
0.0
 11
25.0999755859375
 21
47.525932617187493
 31
0.0
  0
LINE
  5
2E0
  8
0
  6
CONTINUOUS
 62
     0
 10
51.529975585937493
 20
42.9559326171875
 30
0.0
 11
29.6699755859375
 21
42.9559326171875
 31
0.0
  0
SOLID
  5
2E1
  8
0
  6
CONTINUOUS
 62
     0
 10
51.529975585937493
 20
43.71759928385417
 30
0.0
 11
51.529975585937493
 21
42.19426595052083
 31
0.0
 12
56.0999755859375
 22
42.9559326171875
 32
0.0
 13
56.0999755859375
 23
42.9559326171875
 33
0.0
  0
SOLID
  5
2E2
  8
0
  6
CONTINUOUS
 62
     0
 10
29.6699755859375
 20
43.71759928385417
 30
0.0
 11
29.6699755859375
 21
42.19426595052083
 31
0.0
 12
25.0999755859375
 22
42.9559326171875
 32
0.0
 13
25.0999755859375
 23
42.9559326171875
 33
0.0
  0
TEXT
  5
2E3
  8
0
 62
     0
 10
37.474575482876297
 20
45.23593261718748
 30
0.0
 40
4.1672001374149312
  1
31
  0
POINT
  5
2E4
  8
DEFPOINTS
  6
CONTINUOUS
 62
     0
 10
56.0999755859375
 20
30.060272216796871
 30
0.0
  0
POINT
  5
2E5
  8
DEFPOINTS
  6
CONTINUOUS
 62
     0
 10
25.0999755859375
 20
30.060272216796871
 30
0.0
  0
POINT
  5
2E6
  8
DEFPOINTS
  6
CONTINUOUS
 62
     0
 10
25.0999755859375
 20
42.9559326171875
 30
0.0
  0
ENDBLK
  5
9B
  8
0
  0
BLOCK
  8
0
  2
CCD_OARW
 70
     0
 10
0.0
 20
0.0
 30
0.0
  3
CCD_OARW
  1

  0
POLYLINE
  5
1DA
  8
0
 62
     0
 66
     1
 10
0.0
 20
0.0
 30
0.0
  0
VERTEX
  5
361
  8
0
 62
     0
 10
3.3182601204778792
 20
0.5835116150723609
 30
0.0
  0
VERTEX
  5
362
  8
0
 62
     0
 10
0.5079999923706055
 20
0.0
 30
0.0
  0
VERTEX
  5
363
  8
0
 62
     0
 10
3.3182601204778792
 20
-0.5835116150723609
 30
0.0
  0
SEQEND
  5
364
  8
0
 62
     0
  0
ENDBLK
  5
9E
  8
0
  0
BLOCK
  8
0
  2
CCD_OARWRT
 70
     0
 10
0.0
 20
0.0
 30
0.0
  3
CCD_OARWRT
  1

  0
POLYLINE
  5
1DF
  8
0
 62
     0
 66
     1
 10
0.0
 20
0.0
 30
0.0
  0
VERTEX
  5
365
  8
0
 62
     0
 10
3.3182601204778792
 20
0.5835116150723609
 30
0.0
  0
VERTEX
  5
366
  8
0
 62
     0
 10
0.5079999923706055
 20
0.0
 30
0.0
  0
VERTEX
  5
367
  8
0
 62
     0
 10
3.3182601204778792
 20
-0.5835116150723609
 30
0.0
  0
SEQEND
  5
368
  8
0
 62
     0
  0
ENDBLK
  5
A1
  8
0
  0
BLOCK
  8
0
  2
*D4
 70
     1
 10
0.0
 20
0.0
 30
0.0
  3
*D4
  1

  0
LINE
  5
2D5
  8
0
  6
CONTINUOUS
 62
     0
 10
121.08
 20
24.560272216796871
 30
0.0
 11
157.7485278320311
 21
24.560272216796861
 31
0.0
  0
LINE
  5
2D6
  8
0
  6
CONTINUOUS
 62
     0
 10
121.08
 20
-3.439727783203125
 30
0.0
 11
157.7485278320311
 21
-3.439727783203133
 31
0.0
  0
LINE
  5
2D7
  8
0
  6
CONTINUOUS
 62
     0
 10
153.17852783203111
 20
19.99027221679685
 30
0.0
 11
153.17852783203111
 21
1.1302722167968651
 31
0.0
  0
SOLID
  5
2D8
  8
0
  6
CONTINUOUS
 62
     0
 10
152.41686116536431
 20
19.99027221679685
 30
0.0
 11
153.94019449869779
 21
19.99027221679685
 31
0.0
 12
153.17852783203111
 22
24.560272216796861
 32
0.0
 13
153.17852783203111
 23
24.560272216796861
 33
0.0
  0
SOLID
  5
2D9
  8
0
  6
CONTINUOUS
 62
     0
 10
152.41686116536431
 20
1.1302722167968651
 30
0.0
 11
153.94019449869779
 21
1.1302722167968651
 31
0.0
 12
153.17852783203111
 22
-3.439727783203133
 32
0.0
 13
153.17852783203111
 23
-3.439727783203133
 33
0.0
  0
TEXT
  5
2DA
  8
0
 62
     0
 10
150.89852783203099
 20
7.0876054356177809
 30
0.0
 40
4.1672001374149312
  1
28
 50
90.0
  0
POINT
  5
2DB
  8
DEFPOINTS
  6
CONTINUOUS
 62
     0
 10
119.5
 20
24.560272216796879
 30
0.0
  0
POINT
  5
2DC
  8
DEFPOINTS
  6
CONTINUOUS
 62
     0
 10
119.5
 20
-3.439727783203125
 30
0.0
  0
POINT
  5
2DD
  8
DEFPOINTS
  6
CONTINUOUS
 62
     0
 10
153.17852783203111
 20
-3.439727783203133
 30
0.0
  0
ENDBLK
  5
A4
  8
0
  0
BLOCK
  8
0
  2
*D5
 70
     1
 10
0.0
 20
0.0
 30
0.0
  3
*D5
  1

  0
LINE
  5
2CD
  8
0
  6
CONTINUOUS
 62
     0
 10
101.47389850719451
 20
8.7692630336188202
 30
0.0
 11
112.74432077096699
 21
20.231982219629462
 31
0.0
  0
LINE
  5
2CE
  8
0
  6
CONTINUOUS
 62
     0
 10
121.2556792290324
 20
28.888562213964271
 30
0.0
 11
124.45970790723359
 21
32.147258307383566
 31
0.0
  0
TEXT
  5
2CF
  8
0
 62
     0
 10
101.4466246107617
 20
11.99355460458032
 30
0.0
 40
4.1672001374149312
  1
\U+22053
 50
45.484646581242437
  0
LINE
  5
2D0
  8
0
  6
CONTINUOUS
 62
     0
 10
118.0516505508315
 20
25.629866120544978
 30
0.0
 11
115.94834944916821
 21
23.490678313048761
 31
0.0
  0
SOLID
  5
2D1
  8
0
  6
CONTINUOUS
 62
     0
 10
120.7125632134627
 20
29.422566993664422
 30
0.0
 11
121.7987952446025
 21
28.354557434264109
 31
0.0
 12
118.0516505508315
 22
25.629866120544978
 32
0.0
 13
118.0516505508315
 23
25.629866120544978
 33
0.0
  0
SOLID
  5
2D2
  8
0
  6
CONTINUOUS
 62
     0
 10
112.2012047553974
 20
20.76598699932962
 30
0.0
 11
113.2874367865372
 21
19.697977439929311
 31
0.0
 12
115.94834944916821
 22
23.490678313048761
 32
0.0
 13
115.94834944916821
 23
23.490678313048761
 33
0.0
  0
POINT
  5
2D3
  8
DEFPOINTS
  6
CONTINUOUS
 62
     0
 10
115.94834944916821
 20
23.490678313048761
 30
0.0
  0
POINT
  5
2D4
  8
DEFPOINTS
  6
CONTINUOUS
 62
     0
 10
118.0516505508315
 20
25.629866120544978
 30
0.0
  0
ENDBLK
  5
A7
  8
0
  0
BLOCK
  8
0
  2
CCD_IARWRT
 70
     0
 10
0.0
 20
0.0
 30
0.0
  3
CCD_IARWRT
  1

  0
POLYLINE
  5
1EE
  8
0
 62
     0
 66
     1
 10
0.0
 20
0.0
 30
0.0
  0
VERTEX
  5
369
  8
0
 62
     0
 10
-3.318260120477881
 20
-0.5835116150723501
 30
0.0
  0
VERTEX
  5
36A
  8
0
 62
     0
 10
-0.5079999923706055
 20
0.0000000000000016
 30
0.0
  0
VERTEX
  5
36B
  8
0
 62
     0
 10
-3.3182601204778761
 20
0.5835116150723715
 30
0.0
  0
SEQEND
  5
36C
  8
0
 62
     0
  0
ENDBLK
  5
AA
  8
0
  0
BLOCK
  8
0
  2
*D7
 70
     1
 10
0.0
 20
0.0
 30
0.0
  3
*D7
  1

  0
LINE
  5
2C4
  8
0
  6
CONTINUOUS
 62
     0
 10
56.0999755859375
 20
31.64027221679688
 30
0.0
 11
56.0999755859375
 21
57.81114990234375
 31
0.0
  0
LINE
  5
2C5
  8
0
  6
CONTINUOUS
 62
     0
 10
18.519989013671879
 20
28.294263916015609
 30
0.0
 11
18.519989013671879
 21
57.81114990234375
 31
0.0
  0
LINE
  5
2C6
  8
0
  6
CONTINUOUS
 62
     0
 10
51.529975585937493
 20
53.24114990234375
 30
0.0
 11
23.089989013671872
 21
53.24114990234375
 31
0.0
  0
SOLID
  5
2C7
  8
0
  6
CONTINUOUS
 62
     0
 10
51.529975585937493
 20
54.00281656901042
 30
0.0
 11
51.529975585937493
 21
52.47948323567708
 31
0.0
 12
56.0999755859375
 22
53.24114990234375
 32
0.0
 13
56.0999755859375
 23
53.24114990234375
 33
0.0
  0
SOLID
  5
2C8
  8
0
  6
CONTINUOUS
 62
     0
 10
23.089989013671872
 20
54.00281656901042
 30
0.0
 11
23.089989013671872
 21
52.47948323567708
 31
0.0
 12
18.519989013671879
 22
53.24114990234375
 32
0.0
 13
18.519989013671879
 23
53.24114990234375
 33
0.0
  0
TEXT
  5
2C9
  8
0
 62
     0
 10
29.670115381210639
 20
55.521149902343737
 30
0.0
 40
4.1672001374149312
  1
37.6
  0
POINT
  5
2CA
  8
DEFPOINTS
  6
CONTINUOUS
 62
     0
 10
56.0999755859375
 20
30.060272216796871
 30
0.0
  0
POINT
  5
2CB
  8
DEFPOINTS
  6
CONTINUOUS
 62
     0
 10
18.519989013671879
 20
26.714263916015621
 30
0.0
  0
POINT
  5
2CC
  8
DEFPOINTS
  6
CONTINUOUS
 62
     0
 10
18.519989013671879
 20
53.24114990234375
 30
0.0
  0
ENDBLK
  5
AD
  8
0
  0
BLOCK
  8
0
  2
*D8
 70
     1
 10
0.0
 20
0.0
 30
0.0
  3
*D8
  1

  0
LINE
  5
2B9
  8
0
  6
CONTINUOUS
 62
     0
 10
25.0999755859375
 20
31.64027221679688
 30
0.0
 11
25.0999755859375
 21
47.525932617187493
 31
0.0
  0
LINE
  5
2BA
  8
0
  6
CONTINUOUS
 62
     0
 10
11.819961547851561
 20
12.940275268554689
 30
0.0
 11
11.819961547851561
 21
47.525932617187493
 31
0.0
  0
LINE
  5
2BB
  8
0
  6
CONTINUOUS
 62
     0
 10
29.6699755859375
 20
42.9559326171875
 30
0.0
 11
34.239975585937501
 21
42.9559326171875
 31
0.0
  0
LINE
  5
2BC
  8
0
  6
CONTINUOUS
 62
     0
 10
7.2499615478515622
 20
42.9559326171875
 30
0.0
 11
2.679961547851561
 21
42.9559326171875
 31
0.0
  0
LINE
  5
2BD
  8
0
  6
CONTINUOUS
 62
     0
 10
25.0999755859375
 20
42.9559326171875
 30
0.0
 11
11.819961547851561
 21
42.9559326171875
 31
0.0
  0
SOLID
  5
2BE
  8
0
  6
CONTINUOUS
 62
     0
 10
29.6699755859375
 20
43.71759928385417
 30
0.0
 11
29.6699755859375
 21
42.19426595052083
 31
0.0
 12
25.0999755859375
 22
42.9559326171875
 32
0.0
 13
25.0999755859375
 23
42.9559326171875
 33
0.0
  0
SOLID
  5
2BF
  8
0
  6
CONTINUOUS
 62
     0
 10
7.2499615478515622
 20
43.71759928385417
 30
0.0
 11
7.2499615478515622
 21
42.19426595052083
 31
0.0
 12
11.819961547851561
 22
42.9559326171875
 32
0.0
 13
11.819961547851561
 23
42.9559326171875
 33
0.0
  0
TEXT
  5
2C0
  8
0
 62
     0
 10
7.3474348671213798
 20
45.23593261718748
 30
0.0
 40
4.1672001374149312
  1
(13.3)
  0
POINT
  5
2C1
  8
DEFPOINTS
  6
CONTINUOUS
 62
     0
 10
25.0999755859375
 20
30.060272216796871
 30
0.0
  0
POINT
  5
2C2
  8
DEFPOINTS
  6
CONTINUOUS
 62
     0
 10
11.819961547851561
 20
11.36027526855468
 30
0.0
  0
POINT
  5
2C3
  8
DEFPOINTS
  6
CONTINUOUS
 62
     0
 10
11.819961547851561
 20
42.9559326171875
 30
0.0
  0
ENDBLK
  5
B0
  8
0
  0
BLOCK
  8
0
  2
*X9
 70
     1
 10
0.0
 20
0.0
 30
0.0
  3
*X9
  1

  0
LINE
  5
200
  8
0
  6
CONTINUOUS
 10
7.9341481477544482
 20
7.960265695855985
 30
0.0
 11
8.0199888012348826
 21
8.0461063493364176
 31
0.0
  0
LINE
  5
201
  8
0
  6
CONTINUOUS
 10
5.6890844372400027
 20
7.9602659540054272
 30
0.0
 11
6.8890962310006154
 21
9.1602777477660364
 31
0.0
  0
LINE
  5
202
  8
0
  6
CONTINUOUS
 10
3.4440207319939158
 20
7.9602662068865158
 30
0.0
 11
4.6440325257545254
 21
9.1602780006471232
 31
0.0
  0
LINE
  5
203
  8
0
  6
CONTINUOUS
 10
1.1989564366919581
 20
7.9602657011243423
 30
0.0
 11
2.3989689048021292
 21
9.1602781692345161
 31
0.0
  0
LINE
  5
204
  8
0
  6
CONTINUOUS
 10
-1.0461073528478271
 20
7.9602660382991246
 30
0.0
 11
0.1539047780875649
 21
9.1602781692345161
 31
0.0
  0
LINE
  5
205
  8
0
  6
CONTINUOUS
 10
-3.2911714795623919
 20
7.9602660382991246
 30
0.0
 11
-2.0911593486270021
 21
9.1602781692345161
 31
0.0
  0
LINE
  5
206
  8
0
  6
CONTINUOUS
 10
-5.5362351005147872
 20
7.9602658697117317
 30
0.0
 11
-4.3362229695793957
 21
9.1602780006471232
 31
0.0
  0
LINE
  5
207
  8
0
  6
CONTINUOUS
 10
-7.7812994801104409
 20
7.9602662911802113
 30
0.0
 11
-6.5812873491750494
 21
9.1602784221155993
 31
0.0
  0
LINE
  5
208
  8
0
  6
CONTINUOUS
 10
-10.02636318535651
 20
7.9602660382991246
 30
0.0
 11
-8.8263510017375761
 21
9.1602782219180767
 31
0.0
  0
LINE
  5
209
  8
0
  6
CONTINUOUS
 10
-12.271427480658479
 20
7.9602665440612981
 30
0.0
 11
-11.0714153497231
 21
9.1602786749966878
 31
0.0
  0
LINE
  5
20A
  8
0
  6
CONTINUOUS
 10
-14.51649110161086
 20
7.960266375473906
 30
0.0
 11
-13.31647897067549
 21
9.1602785064092966
 31
0.0
  0
LINE
  5
20B
  8
0
  6
CONTINUOUS
 10
-15.84052420967711
 20
8.8812980684718053
 30
0.0
 11
-15.56154343456484
 21
9.1602788435840772
 31
0.0
  0
ENDBLK
  5
B3
  8
0
  0
BLOCK
  8
0
  2
*X10
 70
     1
 10
0.0
 20
0.0
 30
0.0
  3
*X10
  1

  0
LINE
  5
20C
  8
0
  6
CONTINUOUS
 10
-16.761555565500231
 20
7.9602667126486866
 30
0.0
 11
-16.240521397435
 21
8.4813008807139187
 31
0.0
  0
LINE
  5
20D
  8
0
  6
CONTINUOUS
 10
-19.006619355040009
 20
7.960266375473906
 30
0.0
 11
-17.806606886929821
 21
9.1602788435840772
 31
0.0
  0
LINE
  5
20E
  8
0
  6
CONTINUOUS
 10
-21.251682807405011
 20
7.960266375473906
 30
0.0
 11
-20.05167067646963
 21
9.1602785064092966
 31
0.0
  0
LINE
  5
20F
  8
0
  6
CONTINUOUS
 10
-23.496746259770021
 20
7.960266375473906
 30
0.0
 11
-22.296734466009411
 21
9.1602781692345161
 31
0.0
  0
LINE
  5
210
  8
0
  6
CONTINUOUS
 10
-25.741810386484591
 20
7.9602657011243423
 30
0.0
 11
-24.54179791837441
 21
9.1602781692345161
 31
0.0
  0
LINE
  5
211
  8
0
  6
CONTINUOUS
 10
-27.986875187548719
 20
7.9602670498234724
 30
0.0
 11
-26.78686339378811
 21
9.1602788435840772
 31
0.0
  0
LINE
  5
212
  8
0
  6
CONTINUOUS
 10
-30.231938639913722
 20
7.9602670498234724
 30
0.0
 11
-29.031926846153109
 21
9.1602788435840772
 31
0.0
  0
LINE
  5
213
  8
0
  6
CONTINUOUS
 10
-32.477002766628289
 20
7.960266375473906
 30
0.0
 11
-31.276990298518111
 21
9.1602788435840772
 31
0.0
  0
LINE
  5
214
  8
0
  6
CONTINUOUS
 10
-34.722066218993277
 20
7.960266375473906
 30
0.0
 11
-33.522054425232668
 21
9.1602781692345161
 31
0.0
  0
LINE
  5
215
  8
0
  6
CONTINUOUS
 10
-36.967129671358279
 20
7.960266375473906
 30
0.0
 11
-35.767117877597677
 21
9.1602781692345161
 31
0.0
  0
LINE
  5
216
  8
0
  6
CONTINUOUS
 10
-39.212194472422418
 20
7.9602677241730353
 30
0.0
 11
-38.012182678661809
 21
9.1602795179336436
 31
0.0
  0
LINE
  5
217
  8
0
  6
CONTINUOUS
 10
-41.457257924787399
 20
7.960265026774775
 30
0.0
 11
-40.257244782327689
 21
9.1602781692345161
 31
0.0
  0
LINE
  5
218
  8
0
  6
CONTINUOUS
 10
-43.702322725851559
 20
7.960266375473906
 30
0.0
 11
-42.502309583391821
 21
9.1602795179336436
 31
0.0
  0
LINE
  5
219
  8
0
  6
CONTINUOUS
 10
-45.947387526915684
 20
7.9602677241730353
 30
0.0
 11
-44.747375733155081
 21
9.1602795179336436
 31
0.0
  0
ENDBLK
  5
B6
  8
0
  0
BLOCK
  8
0
  2
*D11
 70
     1
 10
0.0
 20
0.0
 30
0.0
  3
*D11
  1

  0
LINE
  5
2B0
  8
0
  6
CONTINUOUS
 62
     0
 10
57.679975585937498
 20
30.060272216796871
 30
0.0
 11
79.836700744628899
 21
30.060272216796871
 31
0.0
  0
LINE
  5
2B1
  8
0
  6
CONTINUOUS
 62
     0
 10
57.679975585937498
 20
-8.939727783203125
 30
0.0
 11
79.836700744628899
 21
-8.9397277832031339
 31
0.0
  0
LINE
  5
2B2
  8
0
  6
CONTINUOUS
 62
     0
 10
75.266700744628906
 20
25.490272216796871
 30
0.0
 11
75.266700744628906
 21
-4.36972778320313
 31
0.0
  0
SOLID
  5
2B3
  8
0
  6
CONTINUOUS
 62
     0
 10
74.505034077962236
 20
25.490272216796871
 30
0.0
 11
76.028367411295562
 21
25.490272216796871
 31
0.0
 12
75.266700744628906
 22
30.060272216796871
 32
0.0
 13
75.266700744628906
 23
30.060272216796871
 33
0.0
  0
SOLID
  5
2B4
  8
0
  6
CONTINUOUS
 62
     0
 10
74.505034077962236
 20
-4.36972778320313
 30
0.0
 11
76.028367411295562
 21
-4.36972778320313
 31
0.0
 12
75.266700744628906
 22
-8.9397277832031303
 32
0.0
 13
75.266700744628906
 23
-8.9397277832031303
 33
0.0
  0
INSERT
  5
2B5
  8
0
  2
*U13
 10
0.0
 20
0.0
 30
0.0
  0
POINT
  5
2B6
  8
DEFPOINTS
  6
CONTINUOUS
 62
     0
 10
56.0999755859375
 20
30.060272216796871
 30
0.0
  0
POINT
  5
2B7
  8
DEFPOINTS
  6
CONTINUOUS
 62
     0
 10
56.0999755859375
 20
-8.939727783203125
 30
0.0
  0
POINT
  5
2B8
  8
DEFPOINTS
  6
CONTINUOUS
 62
     0
 10
75.266700744628906
 20
-8.9397277832031303
 30
0.0
  0
ENDBLK
  5
B9
  8
0
  0
BLOCK
  8
0
  2
*D12
 70
     1
 10
0.0
 20
0.0
 30
0.0
  3
*D12
  1

  0
LINE
  5
2E7
  8
0
  6
CONTINUOUS
 62
     0
 10
18.519989013671879
 20
-7.1737194824218751
 30
0.0
 11
18.519989013671879
 21
-27.07020790100098
 31
0.0
  0
LINE
  5
2E8
  8
0
  6
CONTINUOUS
 62
     0
 10
-51.980026245117187
 20
6.730272216796874
 30
0.0
 11
-51.980026245117187
 21
-27.07020790100098
 31
0.0
  0
LINE
  5
2E9
  8
0
  6
CONTINUOUS
 62
     0
 10
13.949989013671869
 20
-22.500207901000959
 30
0.0
 11
-47.410026245117159
 21
-22.500207901000959
 31
0.0
  0
SOLID
  5
2EA
  8
0
  6
CONTINUOUS
 62
     0
 10
13.949989013671869
 20
-21.738541234334299
 30
0.0
 11
13.949989013671869
 21
-23.26187456766764
 31
0.0
 12
18.519989013671879
 22
-22.500207901000959
 32
0.0
 13
18.519989013671879
 23
-22.500207901000959
 33
0.0
  0
SOLID
  5
2EB
  8
0
  6
CONTINUOUS
 62
     0
 10
-47.410026245117159
 20
-21.738541234334299
 30
0.0
 11
-47.410026245117159
 21
-23.26187456766764
 31
0.0
 12
-51.980026245117187
 22
-22.500207901000959
 32
0.0
 13
-51.980026245117187
 23
-22.500207901000959
 33
0.0
  0
TEXT
  5
2EC
  8
0
 62
     0
 10
-27.981458986742972
 20
-20.220207901000979
 30
0.0
 40
4.1672001374149312
  1
150以上
  0
POINT
  5
2ED
  8
DEFPOINTS
  6
CONTINUOUS
 62
     0
 10
18.519989013671879
 20
-5.593719482421875
 30
0.0
  0
POINT
  5
2EE
  8
DEFPOINTS
  6
CONTINUOUS
 62
     0
 10
-51.980026245117187
 20
8.310272216796875
 30
0.0
  0
POINT
  5
2EF
  8
DEFPOINTS
  6
CONTINUOUS
 62
     0
 10
-51.980026245117187
 20
-22.500207901000959
 30
0.0
  0
ENDBLK
  5
BC
  8
0
  0
BLOCK
  8
0
  2
*U13
 70
     1
 10
0.0
 20
0.0
 30
0.0
  3
*U13
  1

  0
TEXT
  5
36E
  8
0
 62
     0
 10
71.319820689662933
 20
0.6978985582482001
 30
0.0
 40
4.1672001374149312
  1
\U+2205
 50
90.0
  0
TEXT
  5
36F
  8
0
 62
     0
 10
71.319820689662933
 20
4.8650986956631312
 30
0.0
 40
4.1672001374149312
  1
40N薇^K
 50
90.0
  0
ENDBLK
  5
371
  8
0
  0
ENDSEC
  0
SECTION
  2
ENTITIES
  0
LINE
  5
BD
  8
0
  6
CONTINUOUS
 10
-114.643798828125
 20
4.560272216796875
 30
0.0
 11
-114.643798828125
 21
0.5098876953125
 31
0.0
  0
ARC
  5
BE
  8
0
  6
CONTINUOUS
 10
-102.84381103515619
 20
10.56027221679687
 30
0.0
 40
15.5
 50
220.42191510301461
 51
264.44656192668111
  0
LINE
  5
BF
  8
0
  6
CONTINUOUS
 10
-111.643798828125
 20
9.0602722167968768
 30
0.0
 11
-111.643798828125
 21
5.560272216796875
 31
0.0
  0
ARC
  5
C0
  8
0
  6
CONTINUOUS
 10
-112.643798828125
 20
5.560272216796875
 30
0.0
 40
1.0
 50
269.99999749552182
 51
0.000010017912262
  0
ARC
  5
C1
  8
0
  6
CONTINUOUS
 10
-102.84381103515619
 20
10.56027221679687
 30
0.0
 40
15.5
 50
275.55343306436242
 51
354.44657424955619
  0
ARC
  5
C2
  8
0
  6
CONTINUOUS
 10
-112.643798828125
 20
15.56027221679688
 30
0.0
 40
1.0
 50
0.000010017912262
 51
89.999988844099846
  0
LINE
  5
C3
  8
0
  6
CONTINUOUS
 10
-116.643798828125
 20
5.060272216796875
 30
0.0
 11
-113.1437988281249
 21
5.060272216796875
 31
0.0
  0
ARC
  5
C4
  8
0
  6
CONTINUOUS
 10
-113.1437988281249
 20
6.060272216796875
 30
0.0
 40
1.0
 50
269.99999749552182
 51
0.000010017912262
  0
ARC
  5
C5
  8
0
  6
CONTINUOUS
 10
-113.1437988281249
 20
15.06027221679688
 30
0.0
 40
1.0
 50
0.000010017912262
 51
89.999988844099846
  0
LINE
  5
C6
  8
0
  6
CONTINUOUS
 10
-113.1437988281249
 20
16.060272216796879
 30
0.0
 11
-116.643798828125
 21
16.060272216796879
 31
0.0
  0
LINE
  5
C7
  8
0
  6
CONTINUOUS
 10
-116.643798828125
 20
16.560272216796871
 30
0.0
 11
-117.94989013671869
 21
16.560272216796871
 31
0.0
  0
ARC
  5
C8
  8
0
  6
CONTINUOUS
 10
-102.84381103515619
 20
10.56027221679687
 30
0.0
 40
16.254045486450192
 50
201.6625273400077
 51
158.3374863203706
  0
LINE
  5
C9
  8
0
  6
CONTINUOUS
 10
-117.94989013671869
 20
4.560272216796875
 30
0.0
 11
-116.643798828125
 21
4.560272216796875
 31
0.0
  0
ARC
  5
CA
  8
0
  6
CONTINUOUS
 10
-102.84381103515619
 20
10.56027221679687
 30
0.0
 40
15.5
 50
5.5534441065770679
 51
84.446553275259205
  0
LINE
  5
CB
  8
0
  6
CONTINUOUS
 10
-112.643798828125
 20
4.560272216796875
 30
0.0
 11
-114.643798828125
 21
4.560272216796875
 31
0.0
  0
ARC
  5
CC
  8
0
  6
CONTINUOUS
 10
-102.84381103515619
 20
10.56027221679687
 30
0.0
 40
15.5
 50
95.553444903507938
 51
139.5780848969853
  0
LINE
  5
CD
  8
0
  6
CONTINUOUS
 10
-114.643798828125
 20
20.61065673828125
 30
0.0
 11
-114.643798828125
 21
16.560272216796871
 31
0.0
  0
LINE
  5
CE
  8
0
  6
CONTINUOUS
 10
-114.643798828125
 20
16.560272216796871
 30
0.0
 11
-112.643798828125
 21
16.560272216796871
 31
0.0
  0
LINE
  5
CF
  8
0
  6
CONTINUOUS
 10
-111.643798828125
 20
15.56027221679688
 30
0.0
 11
-111.643798828125
 21
12.06027221679688
 31
0.0
  0
LINE
  5
D0
  8
0
  6
CONTINUOUS
 10
-116.643798828125
 20
4.560272216796875
 30
0.0
 11
-116.643798828125
 21
5.060272216796875
 31
0.0
  0
LINE
  5
D1
  8
0
  6
CONTINUOUS
 10
-116.643798828125
 20
16.060272216796879
 30
0.0
 11
-116.643798828125
 21
16.560272216796871
 31
0.0
  0
ARC
  5
D2
  8
0
  6
CONTINUOUS
 10
-102.84381103515619
 20
10.56027221679687
 30
0.0
 40
16.79999923706055
 50
200.92483958888951
 51
159.0752013922453
  0
LINE
  5
D3
  8
0
  6
CONTINUOUS
 10
-118.5358581542969
 20
4.560272216796875
 30
0.0
 11
-117.94989013671869
 21
4.560272216796875
 31
0.0
  0
LINE
  5
D4
  8
0
  6
CONTINUOUS
 10
-117.94989013671869
 20
16.560272216796871
 30
0.0
 11
-118.5358581542969
 21
16.560272216796871
 31
0.0
  0
LINE
  5
D5
  8
0
  6
CONTINUOUS
 10
-115.643798828125
 20
16.060272216796879
 30
0.0
 11
-115.643798828125
 21
5.060272216796875
 31
0.0
  0
CIRCLE
  5
D6
  8
0
  6
CONTINUOUS
 10
-114.2438049316405
 20
8.560272216796875
 30
0.0
 40
0.5
  0
ARC
  5
D7
  8
0
  6
CONTINUOUS
 10
-114.2438049316405
 20
12.56027221679688
 30
0.0
 40
0.5
 50
180.00000865142201
 51
152.22244527721489
  0
ARC
  5
D8
  8
0
  6
CONTINUOUS
 10
-102.84381103515619
 20
10.56027221679687
 30
0.0
 40
16.79999923706055
 50
159.0751740714885
 51
200.924835946424
  0
LINE
  5
D9
  8
0
  6
C_CENTER_L
 10
-102.84381103515619
 20
-14.158843994140611
 30
0.0
 11
-102.84381103515619
 21
35.920745849609382
 31
0.0
  0
LINE
  5
DA
  8
0
  6
C_CENTER_L
 10
-79.31005859375
 20
10.56027221679687
 30
0.0
 11
-127.6358947753905
 21
10.56027221679687
 31
0.0
  0
ARC
  5
DB
  8
0
  6
CONTINUOUS
 10
-102.84381103515619
 20
10.56027221679687
 30
0.0
 40
16.69999885559082
 50
201.0560475228456
 51
159.0752013922453
  0
LINE
  5
DC
  8
0
  6
CONTINUOUS
 10
-104.34381103515619
 20
13.682769775390611
 30
0.0
 11
-104.34381103515619
 21
25.987518310546879
 31
0.0
  0
LINE
  5
DD
  8
0
  6
CONTINUOUS
 10
-101.34381103515619
 20
25.987518310546879
 30
0.0
 11
-101.34381103515619
 21
13.682769775390611
 31
0.0
  0
LINE
  5
DE
  8
0
  6
CONTINUOUS
 10
-99.721313476562514
 20
12.06027221679688
 30
0.0
 11
-87.416564941406264
 21
12.06027221679688
 31
0.0
  0
LINE
  5
DF
  8
0
  6
CONTINUOUS
 10
-87.416564941406264
 20
9.0602722167968768
 30
0.0
 11
-99.721313476562514
 21
9.0602722167968768
 31
0.0
  0
LINE
  5
E0
  8
0
  6
CONTINUOUS
 10
-101.34381103515619
 20
7.437774658203125
 30
0.0
 11
-101.34381103515619
 21
-4.86700439453125
 31
0.0
  0
LINE
  5
E1
  8
0
  6
CONTINUOUS
 10
-104.34381103515619
 20
-4.86700439453125
 30
0.0
 11
-104.34381103515619
 21
7.437774658203125
 31
0.0
  0
LINE
  5
E2
  8
0
  6
CONTINUOUS
 10
-105.96630859375
 20
9.0602722167968768
 30
0.0
 11
-111.643798828125
 21
9.0602722167968768
 31
0.0
  0
LINE
  5
E3
  8
0
  6
CONTINUOUS
 10
-111.643798828125
 20
12.06027221679688
 30
0.0
 11
-105.96630859375
 21
12.06027221679688
 31
0.0
  0
ARC
  5
E4
  8
0
  6
CONTINUOUS
 10
-102.84381103515619
 20
10.56027221679687
 30
0.0
 40
3.0
 50
308.68217621833662
 51
321.31797154134682
  0
ARC
  5
E5
  8
0
  6
CONTINUOUS
 10
-102.84381103515619
 20
10.56027221679687
 30
0.0
 40
3.0
 50
38.682212873760683
 51
51.31781695147415
  0
ARC
  5
E6
  8
0
  6
CONTINUOUS
 10
-102.84381103515619
 20
10.56027221679687
 30
0.0
 40
3.0
 50
128.6821846423876
 51
141.31778872010079
  0
ARC
  5
E7
  8
0
  6
CONTINUOUS
 10
-102.84381103515619
 20
10.56027221679687
 30
0.0
 40
3.0
 50
218.6820336949805
 51
231.31782901799059
  0
ARC
  5
E8
  8
0
  6
CONTINUOUS
 10
-100.34381103515619
 20
7.437774658203125
 30
0.0
 40
1.0
 50
128.6821983027659
 51
180.00000500895629
  0
ARC
  5
E9
  8
0
  6
CONTINUOUS
 10
-99.721313476562514
 20
8.060272216796875
 30
0.0
 40
1.0
 50
89.999995674288996
 51
141.31788434274941
  0
ARC
  5
EA
  8
0
  6
CONTINUOUS
 10
-105.34381103515599
 20
7.437774658203125
 30
0.0
 40
1.0
 50
0.0000086514222091
 51
51.317803291095821
  0
ARC
  5
EB
  8
0
  6
CONTINUOUS
 10
-105.96630859375
 20
8.060272216796875
 30
0.0
 40
1.0
 50
38.682117251112317
 51
89.999995674288996
  0
ARC
  5
EC
  8
0
  6
CONTINUOUS
 10
-105.96630859375
 20
13.06027221679688
 30
0.0
 40
1.0
 50
269.99999749552182
 51
321.31780761680682
  0
ARC
  5
ED
  8
0
  6
CONTINUOUS
 10
-105.34381103515599
 20
13.682769775390611
 30
0.0
 40
1.0
 50
308.68217621833662
 51
0.000010017912262
  0
ARC
  5
EE
  8
0
  6
CONTINUOUS
 10
-100.34381103515619
 20
13.682769775390611
 30
0.0
 40
1.0
 50
180.00000865142201
 51
231.31782901799059
  0
ARC
  5
EF
  8
0
  6
CONTINUOUS
 10
-99.721313476562514
 20
13.06027221679688
 30
0.0
 40
1.0
 50
218.68218395914229
 51
269.99999749552182
  0
LINE
  5
F0
  8
0
  6
CONTINUOUS
 10
-112.1437988281249
 20
6.060272216796875
 30
0.0
 11
-112.1437988281249
 21
15.06027221679688
 31
0.0
  0
LINE
  5
F1
  8
0
  6
CONTINUOUS
 10
-116.643798828125
 20
5.060272216796875
 30
0.0
 11
-116.643798828125
 21
16.560272216796871
 31
0.0
  0
LINE
  5
F2
  8
0
  6
C_CENTER_L
 10
94.563903808593764
 20
10.56027221679687
 30
0.0
 11
140.6509704589844
 21
10.56027221679687
 31
0.0
  0
LINE
  5
F3
  8
0
  6
C_CENTER_L
 10
117.0
 20
-14.18927001953125
 30
0.0
 11
117.0
 21
34.635650634765611
 31
0.0
  0
CIRCLE
  5
F4
  8
0
  6
CONTINUOUS
 10
117.0
 20
10.56027221679687
 30
0.0
 40
17.700000762939439
  0
CIRCLE
  5
F5
  8
0
  6
CONTINUOUS
 10
117.0
 20
-3.439727783203125
 30
0.0
 40
1.5
  0
CIRCLE
  5
F6
  8
0
  6
CONTINUOUS
 10
117.0
 20
24.560272216796879
 30
0.0
 40
1.5
  0
ARC
  5
F7
  8
0
  6
C_DASHED_L
 10
117.0
 20
24.560272216796879
 30
0.0
 40
1.299999952316284
 50
74.555913432514657
 51
344.74456394063583
  0
ARC
  5
F8
  8
0
  6
C_DASHED_L
 10
117.0
 20
-3.439727783203125
 30
0.0
 40
1.299999952316284
 50
78.533767793805907
 51
342.36459818472309
  0
LINE
  5
F9
  8
0
  6
C_CENTER_L
 10
114.5
 20
-3.439727783203125
 30
0.0
 11
119.5
 21
-3.439727783203125
 31
0.0
  0
LINE
  5
FA
  8
0
  6
C_CENTER_L
 10
114.5
 20
24.560272216796879
 30
0.0
 11
119.5
 21
24.560272216796879
 31
0.0
  0
CIRCLE
  5
FB
  8
0
  6
CONTINUOUS
 10
117.0
 20
10.56027221679687
 30
0.0
 40
2.099999904632567
  0
LINE
  5
FC
  8
0
  6
CONTINUOUS
 10
56.0999755859375
 20
10.56027221679687
 30
0.0
 11
56.0999755859375
 21
30.060272216796871
 31
0.0
  0
LINE
  5
FD
  8
0
  6
CONTINUOUS
 10
25.0999755859375
 20
30.060272216796871
 30
0.0
 11
56.0999755859375
 21
30.060272216796871
 31
0.0
  0
LINE
  5
FE
  8
0
  6
CONTINUOUS
 10
25.0999755859375
 20
7.21832275390625
 30
0.0
 11
25.0999755859375
 21
30.060272216796871
 31
0.0
  0
LINE
  5
FF
  8
0
  6
CONTINUOUS
 10
25.0999755859375
 20
-8.939727783203125
 30
0.0
 11
56.0999755859375
 21
-8.939727783203125
 31
0.0
  0
LINE
  5
100
  8
0
  6
CONTINUOUS
 10
25.099975585937489
 20
-8.9397277832031623
 30
0.0
 11
25.099975585937511
 21
10.560272216796839
 31
0.0
  0
LINE
  5
101
  8
0
  6
C_CENTER_L
 10
8.5511894226074237
 20
10.56027221679687
 30
0.0
 11
63.849006652832031
 21
10.56027221679687
 31
0.0
  0
LINE
  5
102
  8
0
  6
CONTINUOUS
 10
56.0999755859375
 20
-8.939727783203125
 30
0.0
 11
56.0999755859375
 21
10.56027221679687
 31
0.0
  0
LINE
  5
103
  8
0
  6
CONTINUOUS
 10
18.519989013671879
 20
10.56027221679687
 30
0.0
 11
18.519989013671879
 21
13.56027221679688
 31
0.0
  0
LINE
  5
104
  8
0
  6
CONTINUOUS
 10
18.519989013671879
 20
7.560272216796875
 30
0.0
 11
18.519989013671879
 21
10.56027221679687
 31
0.0
  0
CIRCLE
  5
105
  8
0
  6
CONTINUOUS
 10
117.0
 20
10.56027221679687
 30
0.0
 40
20.0
  0
LINE
  5
106
  8
0
  6
CONTINUOUS
 10
20.019989013671871
 20
-6.13970947265625
 30
0.0
 11
25.0999755859375
 21
-6.13970947265625
 31
0.0
  0
LINE
  5
107
  8
0
  6
CONTINUOUS
 10
18.520027880190309
 20
-5.593773801256118
 30
0.0
 11
20.019982917598728
 21
-6.1397106619173041
 31
0.0
  0
LINE
  5
108
  8
0
  6
CONTINUOUS
 10
18.519989013671879
 20
11.81027221679687
 30
0.0
 11
18.519989013671879
 21
26.714263916015621
 31
0.0
  0
LINE
  5
109
  8
0
  6
CONTINUOUS
 10
18.519989013671879
 20
-5.593719482421875
 30
0.0
 11
18.519989013671879
 21
9.3102722167968768
 31
0.0
  0
LINE
  5
10A
  8
0
  6
CONTINUOUS
 10
18.519968103743849
 20
26.714153958260098
 30
0.0
 11
20.01994106437451
 21
27.260097342415289
 31
0.0
  0
LINE
  5
10B
  8
0
  6
CONTINUOUS
 10
20.02001953125
 20
27.26025390625
 30
0.0
 11
25.0999755859375
 21
27.26025390625
 31
0.0
  0
CIRCLE
  5
10C
  8
0
  6
CONTINUOUS
 10
-102.84381103515619
 20
10.56027221679687
 30
0.0
 40
20.0
  0
LINE
  5
10D
  8
0
  6
CONTINUOUS
 10
8.519989013671875
 20
6.2569580078125
 30
0.0
 11
18.519989013671879
 21
6.2569580078125
 31
0.0
  0
LINE
  5
10E
  8
0
  6
CONTINUOUS
 10
8.519989013671875
 20
4.2569580078125
 30
0.0
 11
18.519989013671879
 21
4.2569580078125
 31
0.0
  0
LINE
  5
10F
  8
0
  6
CONTINUOUS
 10
8.019989013671875
 20
4.7569580078125
 30
0.0
 11
8.019989013671875
 21
5.7569580078125
 31
0.0
  0
ARC
  5
110
  8
0
  6
CONTINUOUS
 10
8.519989013671875
 20
4.7569580078125
 30
0.0
 40
0.5
 50
180.00000865142201
 51
269.99999749552182
  0
ARC
  5
111
  8
0
  6
CONTINUOUS
 10
8.519989013671875
 20
5.7569580078125
 30
0.0
 40
0.5
 50
90.000002504478175
 51
180.00000500895629
  0
CIRCLE
  5
113
  8
0
  6
CONTINUOUS
 10
-102.84381103515619
 20
10.56027221679687
 30
0.0
 40
18.200000762939439
  0
CIRCLE
  5
116
  8
0
  6
CONTINUOUS
 10
-108.1471252441404
 20
5.2569580078125
 30
0.0
 40
1.5
  0
CIRCLE
  5
117
  8
0
  6
CONTINUOUS
 10
-108.1471252441404
 20
15.86358642578125
 30
0.0
 40
1.5
  0
CIRCLE
  5
118
  8
0
  6
CONTINUOUS
 10
-97.540527343750014
 20
15.86358642578125
 30
0.0
 40
1.5
  0
CIRCLE
  5
119
  8
0
  6
CONTINUOUS
 10
-97.540527343750014
 20
5.2569580078125
 30
0.0
 40
1.5
  0
CIRCLE
  5
11A
  8
0
  6
CONTINUOUS
 10
-108.1471252441404
 20
5.2569580078125
 30
0.0
 40
1.0
  0
LINE
  5
11C
  8
0
  6
CONTINUOUS
 10
55.799984717559482
 20
-4.4397226060600579
 30
0.0
 11
56.099983805348749
 21
-4.139723189526193
 31
0.0
  0
LINE
  5
11D
  8
0
  6
CONTINUOUS
 10
48.0999755859375
 20
23.060272216796871
 30
0.0
 11
48.0999755859375
 21
-1.939727783203125
 31
0.0
  0
LINE
  5
11E
  8
0
  6
CONTINUOUS
 10
55.0999755859375
 20
23.060272216796871
 30
0.0
 11
55.0999755859375
 21
-1.939727783203125
 31
0.0
  0
LINE
  5
11F
  8
0
  6
CONTINUOUS
 10
49.5999755859375
 20
-3.439727783203125
 30
0.0
 11
53.5999755859375
 21
-3.439727783203125
 31
0.0
  0
LINE
  5
120
  8
0
  6
CONTINUOUS
 10
49.5999755859375
 20
24.560272216796879
 30
0.0
 11
53.5999755859375
 21
24.560272216796879
 31
0.0
  0
ARC
  5
121
  8
0
  6
CONTINUOUS
 10
49.5999755859375
 20
23.060272216796871
 30
0.0
 40
1.5
 50
90.000002504478175
 51
180.00000500895629
  0
ARC
  5
122
  8
0
  6
CONTINUOUS
 10
53.5999755859375
 20
23.060272216796871
 30
0.0
 40
1.5
 50
0.000010017912262
 51
89.999988844099846
  0
ARC
  5
123
  8
0
  6
CONTINUOUS
 10
49.5999755859375
 20
-1.939727783203125
 30
0.0
 40
1.5
 50
180.00000865142201
 51
269.99999749552182
  0
ARC
  5
124
  8
0
  6
CONTINUOUS
 10
53.5999755859375
 20
-1.939727783203125
 30
0.0
 40
1.5
 50
269.99999749552182
 51
0.000010017912262
  0
LINE
  5
125
  8
0
  6
CONTINUOUS
 10
-15.380020141601561
 20
7.96026611328125
 30
0.0
 11
8.019989013671875
 21
7.96026611328125
 31
0.0
  0
LINE
  5
126
  8
0
  6
CONTINUOUS
 10
-15.98001098632812
 20
9.1602783203125
 30
0.0
 11
8.019989013671875
 21
9.1602783203125
 31
0.0
  0
LINE
  5
127
  8
0
  6
CONTINUOUS
 10
-45.98002624511718
 20
9.1602783203125
 30
0.0
 11
-45.98002624511718
 21
7.96026611328125
 31
0.0
  0
LINE
  5
128
  8
0
  6
CONTINUOUS
 10
-51.980026245117187
 20
8.810272216796875
 30
0.0
 11
-51.980026245117187
 21
8.310272216796875
 31
0.0
  0
LINE
  5
129
  8
0
  6
CONTINUOUS
 10
-51.980026245117187
 20
8.310272216796875
 30
0.0
 11
-45.98002624511718
 21
8.310272216796875
 31
0.0
  0
LINE
  5
12A
  8
0
  6
CONTINUOUS
 10
-51.980026245117187
 20
8.810272216796875
 30
0.0
 11
-45.98002624511718
 21
8.810272216796875
 31
0.0
  0
POLYLINE
  5
12B
  8
0
  6
CONTINUOUS
 66
     1
 10
0.0
 20
0.0
 30
0.0
 70
   128
  0
VERTEX
  5
301
  8
0
  6
CONTINUOUS
 10
-15.380020141601561
 20
9.8602752685546875
 30
0.0
  0
VERTEX
  5
302
  8
0
  6
CONTINUOUS
 10
-15.58089460403426
 20
9.7190202451311034
 30
0.0
  0
VERTEX
  5
303
  8
0
  6
CONTINUOUS
 10
-15.77166976453733
 20
9.5496933273971063
 30
0.0
  0
VERTEX
  5
304
  8
0
  6
CONTINUOUS
 10
-15.852105169578859
 20
9.4571165418601595
 30
0.0
  0
VERTEX
  5
305
  8
0
  6
CONTINUOUS
 10
-15.90222665175691
 20
9.3850794708459944
 30
0.0
  0
VERTEX
  5
306
  8
0
  6
CONTINUOUS
 10
-15.95649391795725
 20
9.2738947738404232
 30
0.0
  0
VERTEX
  5
307
  8
0
  6
CONTINUOUS
 10
-15.98001098632812
 20
9.1602783203125
 30
0.0
  0
VERTEX
  5
308
  8
0
  6
CONTINUOUS
 10
-15.97646796144058
 20
9.0861409230856225
 30
0.0
  0
VERTEX
  5
309
  8
0
  6
CONTINUOUS
 10
-15.93875188261225
 20
8.9555991666365991
 30
0.0
  0
VERTEX
  5
30A
  8
0
  6
CONTINUOUS
 10
-15.889422797349379
 20
8.8571578407911318
 30
0.0
  0
VERTEX
  5
30B
  8
0
  6
CONTINUOUS
 10
-15.79212248483571
 20
8.7089032629652614
 30
0.0
  0
VERTEX
  5
30C
  8
0
  6
CONTINUOUS
 10
-15.680015572211479
 20
8.560272216796875
 30
0.0
  0
VERTEX
  5
30D
  8
0
  6
CONTINUOUS
 10
-15.566209400705169
 20
8.4092839872464502
 30
0.0
  0
VERTEX
  5
30E
  8
0
  6
CONTINUOUS
 10
-15.490192781667099
 20
8.2962802406545961
 30
0.0
  0
VERTEX
  5
30F
  8
0
  6
CONTINUOUS
 10
-15.442849932754459
 20
8.2117732875874463
 30
0.0
  0
VERTEX
  5
310
  8
0
  6
CONTINUOUS
 10
-15.39399519485945
 20
8.0855762799959319
 30
0.0
  0
VERTEX
  5
311
  8
0
  6
CONTINUOUS
 10
-15.380020141601561
 20
7.96026611328125
 30
0.0
  0
VERTEX
  5
312
  8
0
  6
CONTINUOUS
 10
-15.39928936862256
 20
7.8591808438650324
 30
0.0
  0
VERTEX
  5
313
  8
0
  6
CONTINUOUS
 10
-15.430296419835679
 20
7.784484872326173
 30
0.0
  0
VERTEX
  5
314
  8
0
  6
CONTINUOUS
 10
-15.498899507473469
 20
7.6752943519542214
 30
0.0
  0
VERTEX
  5
315
  8
0
  6
CONTINUOUS
 10
-15.58836135811781
 20
7.5708511061966419
 30
0.0
  0
VERTEX
  5
316
  8
0
  6
CONTINUOUS
 10
-15.77913652191749
 20
7.4015241940505803
 30
0.0
  0
VERTEX
  5
317
  8
0
  6
CONTINUOUS
 10
-15.98001098632812
 20
7.2602691650390616
 30
0.0
  0
SEQEND
  5
318
  8
0
  6
CONTINUOUS
  0
POLYLINE
  5
144
  8
0
  6
CONTINUOUS
 66
     1
 10
0.0
 20
0.0
 30
0.0
 70
   128
  0
VERTEX
  5
319
  8
0
  6
CONTINUOUS
 10
-15.98001098632812
 20
9.8602752685546875
 30
0.0
  0
VERTEX
  5
31A
  8
0
  6
CONTINUOUS
 10
-16.180885448760819
 20
9.7190202451311034
 30
0.0
  0
VERTEX
  5
31B
  8
0
  6
CONTINUOUS
 10
-16.37166060926393
 20
9.5496933273971063
 30
0.0
  0
VERTEX
  5
31C
  8
0
  6
CONTINUOUS
 10
-16.452096014305429
 20
9.4571165418601595
 30
0.0
  0
VERTEX
  5
31D
  8
0
  6
CONTINUOUS
 10
-16.502217496483471
 20
9.3850794708459944
 30
0.0
  0
VERTEX
  5
31E
  8
0
  6
CONTINUOUS
 10
-16.556484762683809
 20
9.2738947738404232
 30
0.0
  0
VERTEX
  5
31F
  8
0
  6
CONTINUOUS
 10
-16.580001831054691
 20
9.1602783203125
 30
0.0
  0
VERTEX
  5
320
  8
0
  6
CONTINUOUS
 10
-16.576458806167139
 20
9.0861409230856225
 30
0.0
  0
VERTEX
  5
321
  8
0
  6
CONTINUOUS
 10
-16.53874272733885
 20
8.9555991666365991
 30
0.0
  0
VERTEX
  5
322
  8
0
  6
CONTINUOUS
 10
-16.489413642075931
 20
8.8571578407911318
 30
0.0
  0
VERTEX
  5
323
  8
0
  6
CONTINUOUS
 10
-16.392113329562271
 20
8.7089032629652614
 30
0.0
  0
VERTEX
  5
324
  8
0
  6
CONTINUOUS
 10
-16.280006416938029
 20
8.560272216796875
 30
0.0
  0
VERTEX
  5
325
  8
0
  6
CONTINUOUS
 10
-16.166200245431732
 20
8.4092839872464502
 30
0.0
  0
VERTEX
  5
326
  8
0
  6
CONTINUOUS
 10
-16.090183626393671
 20
8.2962802406545961
 30
0.0
  0
VERTEX
  5
327
  8
0
  6
CONTINUOUS
 10
-16.042840777481011
 20
8.2117732875874463
 30
0.0
  0
VERTEX
  5
328
  8
0
  6
CONTINUOUS
 10
-15.993986039586011
 20
8.0855762799959319
 30
0.0
  0
VERTEX
  5
329
  8
0
  6
CONTINUOUS
 10
-15.98001098632812
 20
7.96026611328125
 30
0.0
  0
VERTEX
  5
32A
  8
0
  6
CONTINUOUS
 10
-15.999280213349101
 20
7.8591808438650324
 30
0.0
  0
VERTEX
  5
32B
  8
0
  6
CONTINUOUS
 10
-16.03028726456224
 20
7.784484872326173
 30
0.0
  0
VERTEX
  5
32C
  8
0
  6
CONTINUOUS
 10
-16.098890352200009
 20
7.6752943519542214
 30
0.0
  0
VERTEX
  5
32D
  8
0
  6
CONTINUOUS
 10
-16.188352202844371
 20
7.5708511061966419
 30
0.0
  0
VERTEX
  5
32E
  8
0
  6
CONTINUOUS
 10
-16.379127366644049
 20
7.4015241940505803
 30
0.0
  0
VERTEX
  5
32F
  8
0
  6
CONTINUOUS
 10
-16.580001831054691
 20
7.2602691650390616
 30
0.0
  0
SEQEND
  5
330
  8
0
  6
CONTINUOUS
  0
LINE
  5
15D
  8
0
  6
CONTINUOUS
 10
-45.98002624511718
 20
7.96026611328125
 30
0.0
 11
-15.98001098632812
 21
7.96026611328125
 31
0.0
  0
LINE
  5
15E
  8
0
  6
CONTINUOUS
 10
-45.98002624511718
 20
9.1602783203125
 30
0.0
 11
-16.580001831054691
 21
9.1602783203125
 31
0.0
  0
LINE
  5
15F
  8
0
  6
CONTINUOUS
 10
-15.48001098632812
 20
11.96026611328125
 30
0.0
 11
7.91998291015625
 21
11.96026611328125
 31
0.0
  0
LINE
  5
160
  8
0
  6
CONTINUOUS
 10
-16.080001831054691
 20
13.1602783203125
 30
0.0
 11
7.91998291015625
 21
13.1602783203125
 31
0.0
  0
LINE
  5
161
  8
0
  6
CONTINUOUS
 10
-46.080001831054688
 20
13.1602783203125
 30
0.0
 11
-46.080001831054688
 21
11.96026611328125
 31
0.0
  0
LINE
  5
162
  8
0
  6
CONTINUOUS
 10
-52.08000183105468
 20
12.81027221679688
 30
0.0
 11
-52.08000183105468
 21
12.31027221679688
 31
0.0
  0
LINE
  5
163
  8
0
  6
CONTINUOUS
 10
-52.08000183105468
 20
12.31027221679688
 30
0.0
 11
-46.080001831054688
 21
12.31027221679688
 31
0.0
  0
LINE
  5
164
  8
0
  6
CONTINUOUS
 10
-52.08000183105468
 20
12.81027221679688
 30
0.0
 11
-46.080001831054688
 21
12.81027221679688
 31
0.0
  0
POLYLINE
  5
165
  8
0
  6
CONTINUOUS
 66
     1
 10
0.0
 20
0.0
 30
0.0
 70
   128
  0
VERTEX
  5
331
  8
0
  6
CONTINUOUS
 10
-15.48001098632812
 20
13.86027526855468
 30
0.0
  0
VERTEX
  5
332
  8
0
  6
CONTINUOUS
 10
-15.68088544876081
 20
13.719020245131111
 30
0.0
  0
VERTEX
  5
333
  8
0
  6
CONTINUOUS
 10
-15.87166060926393
 20
13.549693327397099
 30
0.0
  0
VERTEX
  5
334
  8
0
  6
CONTINUOUS
 10
-15.952096014305431
 20
13.457116541860159
 30
0.0
  0
VERTEX
  5
335
  8
0
  6
CONTINUOUS
 10
-16.002217496483471
 20
13.385079470845991
 30
0.0
  0
VERTEX
  5
336
  8
0
  6
CONTINUOUS
 10
-16.056484762683809
 20
13.27389477384042
 30
0.0
  0
VERTEX
  5
337
  8
0
  6
CONTINUOUS
 10
-16.080001831054691
 20
13.1602783203125
 30
0.0
  0
VERTEX
  5
338
  8
0
  6
CONTINUOUS
 10
-16.076458806167128
 20
13.086140923085599
 30
0.0
  0
VERTEX
  5
339
  8
0
  6
CONTINUOUS
 10
-16.03874272733885
 20
12.955599166636601
 30
0.0
  0
VERTEX
  5
33A
  8
0
  6
CONTINUOUS
 10
-15.98941364207592
 20
12.85715784079113
 30
0.0
  0
VERTEX
  5
33B
  8
0
  6
CONTINUOUS
 10
-15.892113329562269
 20
12.70890326296526
 30
0.0
  0
VERTEX
  5
33C
  8
0
  6
CONTINUOUS
 10
-15.780006416938029
 20
12.56027221679688
 30
0.0
  0
VERTEX
  5
33D
  8
0
  6
CONTINUOUS
 10
-15.666200245431741
 20
12.409283987246431
 30
0.0
  0
VERTEX
  5
33E
  8
0
  6
CONTINUOUS
 10
-15.59018362639368
 20
12.2962802406546
 30
0.0
  0
VERTEX
  5
33F
  8
0
  6
CONTINUOUS
 10
-15.54284077748102
 20
12.21177328758745
 30
0.0
  0
VERTEX
  5
340
  8
0
  6
CONTINUOUS
 10
-15.493986039586011
 20
12.08557627999593
 30
0.0
  0
VERTEX
  5
341
  8
0
  6
CONTINUOUS
 10
-15.48001098632812
 20
11.96026611328125
 30
0.0
  0
VERTEX
  5
342
  8
0
  6
CONTINUOUS
 10
-15.49928021334912
 20
11.859180843865021
 30
0.0
  0
VERTEX
  5
343
  8
0
  6
CONTINUOUS
 10
-15.53028726456224
 20
11.784484872326169
 30
0.0
  0
VERTEX
  5
344
  8
0
  6
CONTINUOUS
 10
-15.598890352200019
 20
11.67529435195422
 30
0.0
  0
VERTEX
  5
345
  8
0
  6
CONTINUOUS
 10
-15.68835220284436
 20
11.57085110619664
 30
0.0
  0
VERTEX
  5
346
  8
0
  6
CONTINUOUS
 10
-15.879127366644051
 20
11.401524194050561
 30
0.0
  0
VERTEX
  5
347
  8
0
  6
CONTINUOUS
 10
-16.080001831054691
 20
11.260269165039061
 30
0.0
  0
SEQEND
  5
348
  8
0
  6
CONTINUOUS
  0
POLYLINE
  5
17E
  8
0
  6
CONTINUOUS
 66
     1
 10
0.0
 20
0.0
 30
0.0
 70
   128
  0
VERTEX
  5
349
  8
0
  6
CONTINUOUS
 10
-16.080001831054691
 20
13.86027526855468
 30
0.0
  0
VERTEX
  5
34A
  8
0
  6
CONTINUOUS
 10
-16.280878677673169
 20
13.719020245131111
 30
0.0
  0
VERTEX
  5
34B
  8
0
  6
CONTINUOUS
 10
-16.47165908338502
 20
13.549693327397099
 30
0.0
  0
VERTEX
  5
34C
  8
0
  6
CONTINUOUS
 10
-16.552097289844799
 20
13.457116541860159
 30
0.0
  0
VERTEX
  5
34D
  8
0
  6
CONTINUOUS
 10
-16.602220657951079
 20
13.385079470845991
 30
0.0
  0
VERTEX
  5
34E
  8
0
  6
CONTINUOUS
 10
-16.656490045820661
 20
13.27389477384042
 30
0.0
  0
VERTEX
  5
34F
  8
0
  6
CONTINUOUS
 10
-16.680007934570298
 20
13.1602783203125
 30
0.0
  0
VERTEX
  5
350
  8
0
  6
CONTINUOUS
 10
-16.67646473831941
 20
13.086140923085599
 30
0.0
  0
VERTEX
  5
351
  8
0
  6
CONTINUOUS
 10
-16.638747633522868
 20
12.955599166636601
 30
0.0
  0
VERTEX
  5
352
  8
0
  6
CONTINUOUS
 10
-16.58941729400312
 20
12.85715784079113
 30
0.0
  0
VERTEX
  5
353
  8
0
  6
CONTINUOUS
 10
-16.492114563148721
 20
12.70890326296526
 30
0.0
  0
VERTEX
  5
354
  8
0
  6
CONTINUOUS
 10
-16.38000489105913
 20
12.56027221679688
 30
0.0
  0
VERTEX
  5
355
  8
0
  6
CONTINUOUS
 10
-16.266195918134521
 20
12.409283987246431
 30
0.0
  0
VERTEX
  5
356
  8
0
  6
CONTINUOUS
 10
-16.19017741316825
 20
12.2962802406546
 30
0.0
  0
VERTEX
  5
357
  8
0
  6
CONTINUOUS
 10
-16.14283337258469
 20
12.21177328758745
 30
0.0
  0
VERTEX
  5
358
  8
0
  6
CONTINUOUS
 10
-16.09397735771002
 20
12.08557627999593
 30
0.0
  0
VERTEX
  5
359
  8
0
  6
CONTINUOUS
 10
-16.080001831054691
 20
11.96026611328125
 30
0.0
  0
VERTEX
  5
35A
  8
0
  6
CONTINUOUS
 10
-16.09927171372675
 20
11.859180843865021
 30
0.0
  0
VERTEX
  5
35B
  8
0
  6
CONTINUOUS
 10
-16.130279980315851
 20
11.784484872326169
 30
0.0
  0
VERTEX
  5
35C
  8
0
  6
CONTINUOUS
 10
-16.19888569253709
 20
11.67529435195422
 30
0.0
  0
VERTEX
  5
35D
  8
0
  6
CONTINUOUS
 10
-16.288350676965461
 20
11.57085110619664
 30
0.0
  0
VERTEX
  5
35E
  8
0
  6
CONTINUOUS
 10
-16.479131085973869
 20
11.401524194050561
 30
0.0
  0
VERTEX
  5
35F
  8
0
  6
CONTINUOUS
 10
-16.680007934570298
 20
11.260269165039061
 30
0.0
  0
SEQEND
  5
360
  8
0
  6
CONTINUOUS
  0
LINE
  5
197
  8
0
  6
CONTINUOUS
 10
-46.080001831054688
 20
11.96026611328125
 30
0.0
 11
-16.080001831054691
 21
11.96026611328125
 31
0.0
  0
LINE
  5
198
  8
0
  6
CONTINUOUS
 10
-46.080001831054688
 20
13.1602783203125
 30
0.0
 11
-16.680007934570298
 21
13.1602783203125
 31
0.0
  0
LINE
  5
199
  8
0
  6
CONTINUOUS
 10
7.91998291015625
 20
13.360275268554689
 30
0.0
 11
7.91998291015625
 21
11.760269165039061
 31
0.0
  0
LINE
  5
19A
  8
0
  6
CONTINUOUS
 10
7.91998291015625
 20
13.360275268554689
 30
0.0
 11
18.519989013671879
 21
13.360275268554689
 31
0.0
  0
LINE
  5
19B
  8
0
  6
CONTINUOUS
 10
7.91998291015625
 20
11.760269165039061
 30
0.0
 11
18.519989013671879
 21
11.760269165039061
 31
0.0
  0
LINE
  5
19C
  8
0
  6
CONTINUOUS
 10
8.019989013671875
 20
9.3602752685546875
 30
0.0
 11
18.519989013671879
 21
9.3602752685546875
 31
0.0
  0
LINE
  5
19D
  8
0
  6
CONTINUOUS
 10
8.019989013671875
 20
7.7602691650390616
 30
0.0
 11
18.519989013671879
 21
7.7602691650390616
 31
0.0
  0
LINE
  5
19E
  8
0
  6
CONTINUOUS
 10
8.019989013671875
 20
9.3602752685546875
 30
0.0
 11
8.019989013671875
 21
7.7602691650390616
 31
0.0
  0
CIRCLE
  5
19F
  8
0
  6
CONTINUOUS
 10
-102.84381103515619
 20
10.56027221679687
 30
0.0
 40
1.25
  0
INSERT
  5
1C4
  8
0
  6
CONTINUOUS
  2
*X9
 10
0.0
 20
0.0
 30
0.0
  0
INSERT
  5
1C5
  8
0
  6
CONTINUOUS
  2
*X10
 10
0.0
 20
0.0
 30
0.0
  0
ENDSEC
  0
EOF
