  0
SECTION
  2
HEADER
  9
$ACADVER
  1
AC1009
  9
$INSBASE
 10
0.0
 20
0.0
 30
0.0
  9
$EXTMIN
 10
-127.6358947753905
 20
-14.18927001953125
 30
0.0
  9
$EXTMAX
 10
140.6509704589844
 20
35.920745849609382
 30
0.0
  9
$LIMMIN
 10
-154.70832824707031
 20
-148.5
  9
$LIMMAX
 10
210.0
 20
61.565097808837891
  9
$ORTHOMODE
 70
     0
  9
$REGENMODE
 70
     1
  9
$FILLMODE
 70
     1
  9
$QTEXTMODE
 70
     0
  9
$MIRRTEXT
 70
     1
  9
$DRAGMODE
 70
     2
  9
$LTSCALE
 40
1.0
  9
$OSMODE
 70
    37
  9
$ATTMODE
 70
     1
  9
$TEXTSIZE
 40
4.1672001374149312
  9
$TRACEWID
 40
0.05
  9
$TEXTSTYLE
  7
STANDARD
  9
$CLAYER
  8
0
  9
$CELTYPE
  6
BYLAYER
  9
$CECOLOR
 62
   256
  9
$DIMSCALE
 40
1.0
  9
$DIMASZ
 40
4.5700000000000003
  9
$DIMEXO
 40
1.5800000000000001
  9
$DIMDLI
 40
9.6500000000000004
  9
$DIMRND
 40
0.0
  9
$DIMDLE
 40
0.0
  9
$DIMEXE
 40
4.5700000000000003
  9
$DIMTP
 40
0.0
  9
$DIMTM
 40
0.0
  9
$DIMTXT
 40
4.1600000000000001
  9
$DIMCEN
 40
2.279999999999998
  9
$DIMTSZ
 40
0.0
  9
$DIMTOL
 70
     0
  9
$DIMLIM
 70
     0
  9
$DIMTIH
 70
     0
  9
$DIMTOH
 70
     0
  9
$DIMSE1
 70
     0
  9
$DIMSE2
 70
     0
  9
$DIMTAD
 70
     1
  9
$DIMZIN
 70
     8
  9
$DIMBLK
  1

  9
$DIMASO
 70
     1
  9
$DIMSHO
 70
     1
  9
$DIMPOST
  1

  9
$DIMAPOST
  1

  9
$DIMALT
 70
     0
  9
$DIMALTD
 70
     4
  9
$DIMALTF
 40
25.399999999999999
  9
$DIMLFAC
 40
1.0
  9
$DIMTOFL
 70
     1
  9
$DIMTVP
 40
0.0
  9
$DIMTIX
 70
     1
  9
$DIMSOXD
 70
     0
  9
$DIMSAH
 70
     0
  9
$DIMBLK1
  1

  9
$DIMBLK2
  1

  9
$DIMSTYLE
  2
STANDARD
  9
$DIMCLRD
 70
     0
  9
$DIMCLRE
 70
     0
  9
$DIMCLRT
 70
     0
  9
$DIMTFAC
 40
1.0
  9
$DIMGAP
 40
2.279999999999998
  9
$LUNITS
 70
     2
  9
$LUPREC
 70
     6
  9
$SKETCHINC
 40
0.1
  9
$FILLETRAD
 40
0.5
  9
$AUNITS
 70
     0
  9
$AUPREC
 70
     4
  9
$MENU
  1
.
  9
$ELEVATION
 40
0.0
  9
$PELEVATION
 40
0.0
  9
$THICKNESS
 40
0.0
  9
$LIMCHECK
 70
     0
  9
$BLIPMODE
 70
     0
  9
$CHAMFERA
 40
0.0
  9
$CHAMFERB
 40
0.0
  9
$SKPOLY
 70
     0
  9
$TDCREATE
 40
2447893.375
  9
$TDUPDATE
 40
2459165.5261264122
  9
$TDINDWG
 40
0.0017654745
  9
$TDUSRTIMER
 40
0.0017651042
  9
$USRTIMER
 70
     1
  9
$ANGBASE
 50
0.0
  9
$ANGDIR
 70
     0
  9
$PDMODE
 70
     0
  9
$PDSIZE
 40
0.0
  9
$PLINEWID
 40
0.0
  9
$COORDS
 70
     0
  9
$SPLFRAME
 70
     0
  9
$SPLINETYPE
 70
     6
  9
$SPLINESEGS
 70
     8
  9
$ATTDIA
 70
     0
  9
$ATTREQ
 70
     1
  9
$HANDLING
 70
 10241
  9
$HANDSEED
  5
346
  9
$SURFTAB1
 70
     6
  9
$SURFTAB2
 70
     6
  9
$SURFTYPE
 70
     6
  9
$SURFU
 70
     6
  9
$SURFV
 70
     6
  9
$UCSNAME
  2

  9
$UCSORG
 10
0.0
 20
0.0
 30
0.0
  9
$UCSXDIR
 10
1.0
 20
0.0
 30
0.0
  9
$UCSYDIR
 10
0.0
 20
1.0
 30
0.0
  9
$PUCSNAME
  2

  9
$PUCSORG
 10
0.0
 20
0.0
 30
0.0
  9
$PUCSXDIR
 10
1.0
 20
0.0
 30
0.0
  9
$PUCSYDIR
 10
0.0
 20
1.0
 30
0.0
  9
$USERI1
 70
     0
  9
$USERI2
 70
     0
  9
$USERI3
 70
     0
  9
$USERI4
 70
     0
  9
$USERI5
 70
     0
  9
$USERR1
 40
0.0
  9
$USERR2
 40
0.0
  9
$USERR3
 40
0.0
  9
$USERR4
 40
0.0
  9
$USERR5
 40
0.0
  9
$WORLDVIEW
 70
     1
  9
$SHADEDGE
 70
     3
  9
$SHADEDIF
 70
    70
  9
$TILEMODE
 70
     1
  9
$MAXACTVP
 70
    64
  9
$PLIMCHECK
 70
     0
  9
$PEXTMIN
 10
-154.70832824707031
 20
-148.5
 30
1.0000000000000000E+020
  9
$PEXTMAX
 10
210.0
 20
61.565097808837891
 30
-1.0000000000000000E+020
  9
$PLIMMIN
 10
0.0
 20
0.0
  9
$PLIMMAX
 10
12.0
 20
9.0
  9
$UNITMODE
 70
     0
  9
$VISRETAIN
 70
     0
  9
$PLINEGEN
 70
     0
  9
$PSLTSCALE
 70
     1
  0
ENDSEC
  0
SECTION
  2
TABLES
  0
TABLE
  2
VPORT
 70
     2
  0
VPORT
  2
*ACTIVE
 70
     0
 10
0.0
 20
0.0
 11
1.0
 21
1.0
 12
6.5127209094160321
 22
25.600325022682281
 13
0.0
 23
0.0
 14
6.3499999046325666
 24
6.3499999046325666
 15
6.3499999046325666
 25
6.3499999046325666
 16
0.0
 26
0.0
 36
1.0
 17
0.0
 27
0.0
 37
0.0
 40
184.95571352618859
 41
1.458837772397094
 42
50.0
 43
0.0
 44
0.0
 50
0.0
 51
0.0
 71
     0
 72
   100
 73
     1
 74
     1
 75
     0
 76
     0
 77
     0
 78
     0
  0
ENDTAB
  0
TABLE
  2
LTYPE
 70
    36
  0
LTYPE
  2
CONTINUOUS
 70
     0
  3
DXF Default line type
 72
    65
 73
     0
 40
0.0
  0
LTYPE
  2
DASHED
 70
     0
  3
DXF Dashed
 72
    65
 73
     2
 40
0.75
 49
0.5
 49
-0.25
  0
LTYPE
  2
HIDDEN
 70
     0
  3
DXF Hidden
 72
    65
 73
     2
 40
0.375
 49
0.25
 49
-0.125
  0
LTYPE
  2
CENTER
 70
     0
  3
DXF Center
 72
    65
 73
     4
 40
2.0
 49
1.25
 49
-0.25
 49
0.25
 49
-0.25
  0
LTYPE
  2
PHANTOM
 70
     0
  3
DXF Phantom
 72
    65
 73
     6
 40
2.5
 49
1.25
 49
-0.25
 49
0.25
 49
-0.25
 49
0.25
 49
-0.25
  0
LTYPE
  2
DOT
 70
     0
  3
DXF DOT
 72
    65
 73
     2
 40
0.25
 49
0.0
 49
-0.25
  0
LTYPE
  2
DASHDOT
 70
     0
  3
DXF Dash Dot
 72
    65
 73
     4
 40
1.0
 49
0.5
 49
-0.25
 49
0.0
 49
-0.25
  0
LTYPE
  2
BORDER
 70
     0
  3
DXF Border
 72
    65
 73
     6
 40
1.75
 49
0.5
 49
-0.25
 49
0.5
 49
-0.25
 49
0.0
 49
-0.25
  0
LTYPE
  2
DIVIDE
 70
     0
  3
DXF Divide
 72
    65
 73
     6
 40
1.25
 49
0.5
 49
-0.25
 49
0.0
 49
-0.25
 49
0.0
 49
-0.25
  0
LTYPE
  2
C_SOLID_L
 70
     0
  3
CADAM Solid Light
 72
    65
 73
     0
 40
0.0
  0
LTYPE
  2
C_SOLID_M
 70
     0
  3
CADAM Solid Medium
 72
    65
 73
     0
 40
0.0
  0
LTYPE
  2
C_SOLID_H
 70
     0
  3
CADAM Solid Heavy
 72
    65
 73
     0
 40
0.0
  0
LTYPE
  2
C_DASHED_L
 70
     0
  3
CADAM Dashed Light
 72
    65
 73
     2
 40
0.375
 49
0.25
 49
-0.125
  0
LTYPE
  2
C_DASHED_M
 70
     0
  3
CADAM Dashed Medium
 72
    65
 73
     2
 40
0.225
 49
0.075
 49
-0.15
  0
LTYPE
  2
C_CENTER_L
 70
     0
  3
CADAM Center Light
 72
    65
 73
     5
 40
3.4500000000000002
 49
1.5
 49
-0.15
 49
0.15
 49
-0.15
 49
1.5
  0
LTYPE
  2
C_PHANTOM_L
 70
     0
  3
CADAM Phantom Light
 72
    65
 73
     7
 40
3.75
 49
1.5
 49
-0.15
 49
0.15
 49
-0.15
 49
0.15
 49
-0.15
 49
1.5
  0
LTYPE
  2
C_NC
 70
     0
  3
CADAM NC
 72
    65
 73
     0
 40
0.0
  0
LTYPE
  2
DSH1
 70
     0
  3
CADAM Style2 Type 1 Dashed Line
 72
    65
 73
     2
 40
0.1
 49
0.05
 49
-0.05
  0
LTYPE
  2
DSH2
 70
     0
  3
CADAM Style2 Type 2 Dashed Line
 72
    65
 73
     2
 40
0.15
 49
0.09
 49
-0.06
  0
LTYPE
  2
DSH3
 70
     0
  3
CADAM Style2 Type 3 Dashed Line
 72
    65
 73
     2
 40
0.24
 49
0.15
 49
-0.09
  0
LTYPE
  2
DSH4
 70
     0
  3
CADAM Style2 Type 4 Dashed Line
 72
    65
 73
     2
 40
0.48
 49
0.39
 49
-0.09
  0
LTYPE
  2
DSH5
 70
     0
  3
CADAM Style2 Type 5 Dashed Line
 72
    65
 73
     2
 40
0.6600000000000003
 49
0.57
 49
-0.09
  0
LTYPE
  2
DSH6
 70
     0
  3
CADAM Style2 Type 6 Dashed Line
 72
    65
 73
     2
 40
1.139999999999999
 49
1.05
 49
-0.09
  0
LTYPE
  2
PL1
 70
     0
  3
Style 2 Type 1 Phantom Line
 72
    65
 73
     6
 40
1.2399999999999971
 49
1.0
 49
-0.06
 49
0.03
 49
-0.06
 49
0.03
 49
-0.06
  0
LTYPE
  2
PL2
 70
     0
  3
Style 2 Type 2 Phantom Line
 72
    65
 73
     6
 40
1.409999999999999
 49
1.05
 49
-0.06
 49
0.09
 49
-0.06
 49
0.09
 49
-0.06
  0
LTYPE
  2
PL3
 70
     0
  3
Style 2 Type 3 Phantom Line
 72
    65
 73
     6
 40
3.0800000000000001
 49
2.4900000000000002
 49
-0.09
 49
0.16
 49
-0.09
 49
0.16
 49
-0.09
  0
LTYPE
  2
CL1
 70
     0
  3
CADAM Style 2 Type 1 Center Line
 72
    65
 73
     4
 40
0.7800000000000003
 49
0.5400000000000002
 49
-0.06
 49
0.12
 49
-0.06
  0
LTYPE
  2
CL2
 70
     0
  3
CADAM Style 2 Type 2 Center Line
 72
    65
 73
     4
 40
1.179999999999999
 49
1.0
 49
-0.06
 49
0.06
 49
-0.06
  0
LTYPE
  2
CL3
 70
     0
  3
CADAM Style 2 Type 3 Center Line
 72
    65
 73
     4
 40
1.26
 49
1.05
 49
-0.06
 49
0.09
 49
-0.06
  0
LTYPE
  2
CL4
 70
     0
  3
CADAM Style 2 Type 4 Center Line
 72
    65
 73
     4
 40
1.98
 49
1.74
 49
-0.06
 49
0.12
 49
-0.06
  0
LTYPE
  2
CL5
 70
     0
  3
CADAM Style 2 Type 5 Center Line
 72
    65
 73
     4
 40
3.9199999999999982
 49
3.6099999999999981
 49
-0.08
 49
0.15
 49
-0.08
  0
LTYPE
  2
SBK1
 70
     0
  3
CADAM Style 2 Type 1 SetBack Line
 72
    65
 73
     8
 40
2.3700000000000001
 49
1.74
 49
-0.09
 49
0.09
 49
-0.09
 49
0.09
 49
-0.09
 49
0.09
 49
-0.09
  0
LTYPE
  2
SBK2
 70
     0
  3
CADAM Style 2 Type 2 SetBack Line
 72
    65
 73
     8
 40
3.3300000000000001
 49
2.4900000000000002
 49
-0.09
 49
0.16
 49
-0.09
 49
0.16
 49
-0.09
 49
0.16
 49
-0.09
  0
LTYPE
  2
STCH
 70
     0
  3
CADAM Style2 Stitch Line
 72
    65
 73
     2
 40
0.12
 49
0.03
 49
-0.09
  0
LTYPE
  2
MTCH
 70
     0
  3
CADAM Style2 Match Line
 72
    65
 73
     6
 40
2.8900000000000001
 49
2.5899999999999981
 49
-0.06
 49
0.06
 49
-0.06
 49
0.06
 49
-0.06
  0
LTYPE
  2
SLD
 70
     0
  3
CADAM Solid_EXT2
 72
    65
 73
     0
 40
0.0
  0
ENDTAB
  0
TABLE
  2
LAYER
 70
     1
  0
LAYER
  2
0
 70
     0
 62
     7
  6
C_SOLID_M
  0
ENDTAB
  0
TABLE
  2
STYLE
 70
     1
  0
STYLE
  2
STANDARD
 70
     0
 40
4.1672001374149312
 41
1.0
 50
0.0
 71
     0
 42
4.1672001374149312
  3
monotxt
  4
BIGFONT
  0
ENDTAB
  0
TABLE
  2
VIEW
 70
     0
  0
ENDTAB
  0
TABLE
  2
UCS
 70
     2
  0
UCS
  2
MO_001_VIEW_PV_P
 70
     0
 10
0.0
 20
0.0
 30
0.0
 11
1.0
 21
0.0
 31
0.0
 12
0.0
 22
1.0
 32
0.0
  0
UCS
  2
MO_001_VIEW_ZZ_P
 70
     0
 10
210.0
 20
-148.5
 30
0.0
 11
1.0
 21
0.0
 31
0.0
 12
0.0
 22
1.0
 32
0.0
  0
ENDTAB
  0
TABLE
  2
APPID
 70
     3
  0
APPID
  2
ACAD
 70
     0
  0
APPID
  2
PDELIB
 70
     0
  0
APPID
  2
ACAD_MLEADERVER
 70
     0
  0
ENDTAB
  0
TABLE
  2
DIMSTYLE
 70
     1
  0
DIMSTYLE
  2
STANDARD
 70
     0
  3

  4

  5

  6

  7

 40
1.0
 41
4.5700000000000003
 42
1.5800000000000001
 43
9.6500000000000004
 44
4.5700000000000003
 45
0.0
 46
0.0
 47
0.0
 48
0.0
140
4.1600000000000001
141
2.279999999999998
142
0.0
143
25.399999999999999
144
1.0
145
0.0
146
1.0
147
2.279999999999998
 71
     0
 72
     0
 73
     0
 74
     0
 75
     0
 76
     0
 77
     1
 78
     8
170
     0
171
     4
172
     1
173
     0
174
     1
175
     0
176
     0
177
     0
178
     0
  0
ENDTAB
  0
ENDSEC
  0
SECTION
  2
BLOCKS
  0
BLOCK
  8
0
  2
$MODEL_SPACE
 70
     0
 10
0.0
 20
0.0
 30
0.0
  3
$MODEL_SPACE
  1

  0
ENDBLK
  5
21
  8
0
  0
BLOCK
 67
     1
  8
0
  2
$PAPER_SPACE
 70
     0
 10
0.0
 20
0.0
 30
0.0
  3
$PAPER_SPACE
  1

  0
ENDBLK
  5
1D
 67
     1
  8
0
  0
BLOCK
  8
0
  2
MO_001_S_4_20_
 70
     0
 10
0.0
 20
0.0
 30
0.0
  3
MO_001_S_4_20_
  1

  0
POINT
  5
20B
  8
0
  6
CONTINUOUS
 10
0.0
 20
0.0
 30
0.0
  0
POINT
  5
20C
  8
0
  6
CONTINUOUS
 10
0.0
 20
-10.0
 30
0.0
  0
LINE
  5
20D
  8
0
  6
CONTINUOUS
 10
-2.8867511749267578
 20
-4.999999614041144
 30
0.0
 11
0.0
 21
0.0
 31
0.0
  0
LINE
  5
20E
  8
0
  6
CONTINUOUS
 10
0.0
 20
0.0
 30
0.0
 11
2.8867511749267578
 21
-4.999999614041144
 31
0.0
  0
LINE
  5
20F
  8
0
  6
CONTINUOUS
 10
-2.8867511749267578
 20
-5.0
 30
0.0
 11
-1.0
 21
-5.0
 31
0.0
  0
LINE
  5
210
  8
0
  6
CONTINUOUS
 10
1.0
 20
-5.0
 30
0.0
 11
1.0
 21
-10.0
 31
0.0
  0
LINE
  5
211
  8
0
  6
CONTINUOUS
 10
-1.0
 20
-5.0
 30
0.0
 11
-1.0
 21
-10.0
 31
0.0
  0
LINE
  5
212
  8
0
  6
CONTINUOUS
 10
-1.0
 20
-10.0
 30
0.0
 11
1.0
 21
-10.0
 31
0.0
  0
LINE
  5
213
  8
0
  6
CONTINUOUS
 10
1.0
 20
-5.0
 30
0.0
 11
2.8867511749267578
 21
-5.0
 31
0.0
  0
ENDBLK
  5
98
  8
0
  0
BLOCK
  8
0
  2
*D1
 70
     1
 10
0.0
 20
0.0
 30
0.0
  3
*D1
  1

  0
LINE
  5
214
  8
0
 62
     0
 10
46.099975585937493
 20
42.9559326171875
 30
0.0
 11
15.0999755859375
 21
42.9559326171875
 31
0.0
  0
INSERT
  5
215
  8
0
  6
C_SOLID_L
 62
     0
  2
CCD_OARW
 10
46.099975585937493
 20
42.9559326171875
 30
0.0
 50
179.9999999999998
  0
INSERT
  5
216
  8
0
  6
C_SOLID_L
 62
     0
  2
CCD_OARWRT
 10
15.0999755859375
 20
42.9559326171875
 30
0.0
  0
LINE
  5
217
  8
0
 62
     0
 10
46.099975585937493
 20
32.28277218341826
 30
0.0
 11
46.099975585937493
 21
45.241943359375
 31
0.0
  0
LINE
  5
218
  8
0
 62
     0
 10
15.0999755859375
 20
32.28277218341826
 30
0.0
 11
15.0999755859375
 21
45.241943359375
 31
0.0
  0
TEXT
  5
219
  8
0
 10
26.854732155799869
 20
45.996706887245168
 30
0.0
 40
4.1671876907348633
  1
31
  0
ENDBLK
  5
9B
  8
0
  0
BLOCK
  8
0
  2
CCD_OARW
 70
     0
 10
0.0
 20
0.0
 30
0.0
  3
CCD_OARW
  1

  0
POLYLINE
  5
21A
  8
0
 62
     0
 66
     1
 10
0.0
 20
0.0
 30
0.0
  0
VERTEX
  5
32B
  8
0
 62
     0
 10
3.3182601204778792
 20
0.5835116150723609
 30
0.0
  0
VERTEX
  5
32C
  8
0
 62
     0
 10
0.5079999923706055
 20
0.0
 30
0.0
  0
VERTEX
  5
32D
  8
0
 62
     0
 10
3.3182601204778792
 20
-0.5835116150723609
 30
0.0
  0
SEQEND
  5
32E
  8
0
 62
     0
  0
ENDBLK
  5
9E
  8
0
  0
BLOCK
  8
0
  2
CCD_OARWRT
 70
     0
 10
0.0
 20
0.0
 30
0.0
  3
CCD_OARWRT
  1

  0
POLYLINE
  5
21F
  8
0
 62
     0
 66
     1
 10
0.0
 20
0.0
 30
0.0
  0
VERTEX
  5
32F
  8
0
 62
     0
 10
3.3182601204778792
 20
0.5835116150723609
 30
0.0
  0
VERTEX
  5
330
  8
0
 62
     0
 10
0.5079999923706055
 20
0.0
 30
0.0
  0
VERTEX
  5
331
  8
0
 62
     0
 10
3.3182601204778792
 20
-0.5835116150723609
 30
0.0
  0
SEQEND
  5
332
  8
0
 62
     0
  0
ENDBLK
  5
A1
  8
0
  0
BLOCK
  8
0
  2
*D4
 70
     1
 10
0.0
 20
0.0
 30
0.0
  3
*D4
  1

  0
LINE
  5
224
  8
0
 62
     0
 10
153.17852783203111
 20
24.560272216796879
 30
0.0
 11
153.17852783203111
 21
-3.439727783203125
 31
0.0
  0
INSERT
  5
225
  8
0
  6
C_SOLID_L
 62
     0
  2
CCD_OARW
 10
153.17852783203111
 20
24.560272216796879
 30
0.0
 50
269.99999999999977
  0
INSERT
  5
226
  8
0
  6
C_SOLID_L
 62
     0
  2
CCD_OARWRT
 10
153.17852783203111
 20
-3.439727783203125
 30
0.0
 50
89.999999999999943
  0
LINE
  5
227
  8
0
 62
     0
 10
121.7224999666214
 20
24.560272216796879
 30
0.0
 11
155.46453857421881
 21
24.560272216796879
 31
0.0
  0
LINE
  5
228
  8
0
 62
     0
 10
121.7224999666214
 20
-3.439727783203125
 30
0.0
 11
155.46453857421881
 21
-3.439727783203125
 31
0.0
  0
TEXT
  5
229
  8
0
 10
150.1377535619736
 20
6.8197895288467443
 30
0.0
 40
4.1671876907348633
  1
28
 50
90.0
  0
ENDBLK
  5
A4
  8
0
  0
BLOCK
  8
0
  2
*D5
 70
     1
 10
0.0
 20
0.0
 30
0.0
  3
*D5
  1

  0
LINE
  5
22A
  8
0
 62
     0
 10
115.9483457157185
 20
23.4906800176418
 30
0.0
 11
118.0516467639972
 21
25.629867770842321
 31
0.0
  0
LINE
  5
22B
  8
0
 62
     0
 10
118.0516467639972
 20
25.629867770842321
 30
0.0
 11
122.50363402898979
 21
30.15781522870639
 31
0.0
  0
INSERT
  5
22C
  8
0
  6
C_SOLID_L
 62
     0
  2
CCD_IARWRT
 10
118.0516467639972
 20
25.629867770842321
 30
0.0
 50
225.48464658124141
  0
LINE
  5
22D
  8
0
 62
     0
 10
118.0516467639972
 20
25.629867770842321
 30
0.0
 11
130.8301195855382
 21
38.626368004042888
 31
0.0
  0
ENDBLK
  5
A7
  8
0
  0
BLOCK
  8
0
  2
CCD_IARWRT
 70
     0
 10
0.0
 20
0.0
 30
0.0
  3
CCD_IARWRT
  1

  0
POLYLINE
  5
22E
  8
0
 62
     0
 66
     1
 10
0.0
 20
0.0
 30
0.0
  0
VERTEX
  5
333
  8
0
 62
     0
 10
-3.318260120477881
 20
-0.5835116150723501
 30
0.0
  0
VERTEX
  5
334
  8
0
 62
     0
 10
-0.5079999923706055
 20
0.0000000000000016
 30
0.0
  0
VERTEX
  5
335
  8
0
 62
     0
 10
-3.3182601204778761
 20
0.5835116150723715
 30
0.0
  0
SEQEND
  5
336
  8
0
 62
     0
  0
ENDBLK
  5
AA
  8
0
  0
BLOCK
  8
0
  2
*D7
 70
     1
 10
0.0
 20
0.0
 30
0.0
  3
*D7
  1

  0
LINE
  5
233
  8
0
 62
     0
 10
46.099975585937493
 20
53.24114990234375
 30
0.0
 11
8.519989013671875
 21
53.24114990234375
 31
0.0
  0
INSERT
  5
234
  8
0
  6
C_SOLID_L
 62
     0
  2
CCD_OARW
 10
46.099975585937493
 20
53.24114990234375
 30
0.0
 50
179.9999999999998
  0
INSERT
  5
235
  8
0
  6
C_SOLID_L
 62
     0
  2
CCD_OARWRT
 10
8.519989013671875
 20
53.24114990234375
 30
0.0
  0
LINE
  5
236
  8
0
 62
     0
 10
46.099975585937493
 20
32.28277218341826
 30
0.0
 11
46.099975585937493
 21
55.52716064453125
 31
0.0
  0
LINE
  5
237
  8
0
 62
     0
 10
8.5199890136718768
 20
28.93676388263702
 30
0.0
 11
8.519989013671875
 21
55.52716064453125
 31
0.0
  0
TEXT
  5
238
  8
0
 10
19.404738068580631
 20
56.281924172401418
 30
0.0
 40
4.1671876907348633
  1
37.6
  0
ENDBLK
  5
AD
  8
0
  0
BLOCK
  8
0
  2
*D8
 70
     1
 10
0.0
 20
0.0
 30
0.0
  3
*D8
  1

  0
LINE
  5
239
  8
0
 62
     0
 10
68.099975585937528
 20
42.955932617187457
 30
0.0
 11
46.099975585937521
 21
42.955932617187472
 31
0.0
  0
INSERT
  5
23A
  8
0
  6
C_SOLID_L
 62
     0
  2
CCD_OARW
 10
68.099975585937528
 20
42.955932617187457
 30
0.0
 50
179.9999999999998
  0
INSERT
  5
23B
  8
0
  6
C_SOLID_L
 62
     0
  2
CCD_OARWRT
 10
46.099975585937521
 20
42.955932617187472
 30
0.0
  0
LINE
  5
23C
  8
0
 62
     0
 10
68.0999755859375
 20
14.482769131660421
 30
0.0
 11
68.099975585937528
 21
45.241935729980433
 31
0.0
  0
LINE
  5
23D
  8
0
 62
     0
 10
46.099975585937521
 20
32.282772183418253
 30
0.0
 11
46.099975585937528
 21
45.24193572998044
 31
0.0
  0
TEXT
  5
23E
  8
0
 10
49.745237946510308
 20
45.996706887245168
 30
0.0
 40
4.1671876907348633
  1
(22)
  0
ENDBLK
  5
B0
  8
0
  0
BLOCK
  8
0
  2
*D9
 70
     1
 10
0.0
 20
0.0
 30
0.0
  3
*D9
  1

  0
LINE
  5
23F
  8
0
 62
     0
 10
15.0999755859375
 20
42.9559326171875
 30
0.0
 11
1.8199615478515601
 21
42.9559326171875
 31
0.0
  0
INSERT
  5
240
  8
0
  6
C_SOLID_L
 62
     0
  2
CCD_OARW
 10
15.0999755859375
 20
42.9559326171875
 30
0.0
 50
179.9999999999998
  0
INSERT
  5
241
  8
0
  6
C_SOLID_L
 62
     0
  2
CCD_OARWRT
 10
1.8199615478515601
 20
42.9559326171875
 30
0.0
  0
LINE
  5
242
  8
0
 62
     0
 10
15.0999755859375
 20
32.28277218341826
 30
0.0
 11
15.0999755859375
 21
45.241935729980462
 31
0.0
  0
LINE
  5
243
  8
0
 62
     0
 10
1.8199615478515641
 20
13.582775235176079
 30
0.0
 11
1.8199615478515601
 21
45.241935729980462
 31
0.0
  0
TEXT
  5
244
  8
0
 10
-25.108291983604431
 20
45.996706887245168
 30
0.0
 40
4.1671876907348633
  1
(13.3)
  0
LINE
  5
245
  8
0
 62
     0
 10
1.8199615478515601
 20
42.9559326171875
 30
0.0
 11
-26.447744369506839
 21
42.9559326171875
 31
0.0
  0
ENDBLK
  5
B3
  8
0
  0
BLOCK
  8
0
  2
*X10
 70
     1
 10
0.0
 20
0.0
 30
0.0
  3
*X10
  1

  0
LINE
  5
246
  8
0
  6
CONTINUOUS
 10
-2.065851346641097
 20
7.9602660382991246
 30
0.0
 11
-1.9800106931606649
 21
8.0461066917795563
 31
0.0
  0
LINE
  5
247
  8
0
  6
CONTINUOUS
 10
-4.310915810530445
 20
7.960266375473906
 30
0.0
 11
-3.1109036795950531
 21
9.1602785064092966
 31
0.0
  0
LINE
  5
248
  8
0
  6
CONTINUOUS
 10
-6.5559794736296881
 20
7.9602661647396671
 30
0.0
 11
-5.3559673005474471
 21
9.1602783378219073
 31
0.0
  0
LINE
  5
249
  8
0
  6
CONTINUOUS
 10
-8.8010431788757728
 20
7.9602659118585812
 30
0.0
 11
-7.6010310057935371
 21
9.1602780849408205
 31
0.0
  0
LINE
  5
24A
  8
0
  6
CONTINUOUS
 10
-11.046107516324581
 20
7.960266375473906
 30
0.0
 11
-9.846095343242343
 21
9.1602785485561462
 31
0.0
  0
LINE
  5
24B
  8
0
  6
CONTINUOUS
 10
-13.291171137276979
 20
7.9602662068865158
 30
0.0
 11
-12.091159006341581
 21
9.1602783378219073
 31
0.0
  0
LINE
  5
24C
  8
0
  6
CONTINUOUS
 10
-15.53623543257893
 20
7.9602667126486866
 30
0.0
 11
-14.336223301643541
 21
9.1602788435840772
 31
0.0
  0
LINE
  5
24D
  8
0
  6
CONTINUOUS
 10
-17.781299222118719
 20
7.960266375473906
 30
0.0
 11
-16.581287091183331
 21
9.1602785064092966
 31
0.0
  0
LINE
  5
24E
  8
0
  6
CONTINUOUS
 10
-20.02636267448371
 20
7.960266375473906
 30
0.0
 11
-18.826350880723101
 21
9.1602781692345161
 31
0.0
  0
LINE
  5
24F
  8
0
  6
CONTINUOUS
 10
-22.271426801198292
 20
7.9602657011243423
 30
0.0
 11
-21.0714143330881
 21
9.1602781692345161
 31
0.0
  0
LINE
  5
250
  8
0
  6
CONTINUOUS
 10
-24.51649160226242
 20
7.9602670498234724
 30
0.0
 11
-23.316479134152249
 21
9.1602795179336436
 31
0.0
  0
LINE
  5
251
  8
0
  6
CONTINUOUS
 10
-25.840523698804301
 20
8.8812984056465876
 30
0.0
 11
-25.561543260866809
 21
9.1602788435840772
 31
0.0
  0
ENDBLK
  5
B6
  8
0
  0
BLOCK
  8
0
  2
*X11
 70
     1
 10
0.0
 20
0.0
 30
0.0
  3
*X11
  1

  0
LINE
  5
252
  8
0
  6
CONTINUOUS
 10
-26.761555054627419
 20
7.9602670498234724
 30
0.0
 11
-26.240520886562191
 21
8.4813012178886993
 31
0.0
  0
LINE
  5
253
  8
0
  6
CONTINUOUS
 10
-29.006619181341978
 20
7.960266375473906
 30
0.0
 11
-27.806606713231819
 21
9.1602788435840772
 31
0.0
  0
LINE
  5
254
  8
0
  6
CONTINUOUS
 10
-31.251682633706981
 20
7.960266375473906
 30
0.0
 11
-30.051670165596811
 21
9.1602788435840772
 31
0.0
  0
LINE
  5
255
  8
0
  6
CONTINUOUS
 10
-33.49674608607198
 20
7.960266375473906
 30
0.0
 11
-32.29673429231137
 21
9.1602781692345161
 31
0.0
  0
LINE
  5
256
  8
0
  6
CONTINUOUS
 10
-35.741810887136133
 20
7.9602677241730353
 30
0.0
 11
-34.541799093375523
 21
9.1602795179336436
 31
0.0
  0
LINE
  5
257
  8
0
  6
CONTINUOUS
 10
-37.986874339501128
 20
7.9602677241730353
 30
0.0
 11
-36.786862545740519
 21
9.1602795179336436
 31
0.0
  0
LINE
  5
258
  8
0
  6
CONTINUOUS
 10
-40.23193779186613
 20
7.960265026774775
 30
0.0
 11
-39.031924649406392
 21
9.1602781692345161
 31
0.0
  0
LINE
  5
259
  8
0
  6
CONTINUOUS
 10
-42.477002592930262
 20
7.960266375473906
 30
0.0
 11
-41.276990799169653
 21
9.1602781692345161
 31
0.0
  0
LINE
  5
25A
  8
0
  6
CONTINUOUS
 10
-44.722067393994379
 20
7.9602677241730353
 30
0.0
 11
-43.522055600233777
 21
9.1602795179336436
 31
0.0
  0
LINE
  5
25B
  8
0
  6
CONTINUOUS
 10
-46.967129497660267
 20
7.960266375473906
 30
0.0
 11
-45.76711770389965
 21
9.1602781692345161
 31
0.0
  0
LINE
  5
25C
  8
0
  6
CONTINUOUS
 10
-49.212194298724391
 20
7.9602677241730353
 30
0.0
 11
-48.012182504963789
 21
9.1602795179336436
 31
0.0
  0
LINE
  5
25D
  8
0
  6
CONTINUOUS
 10
-51.457256402390271
 20
7.960266375473906
 30
0.0
 11
-50.257244608629641
 21
9.1602781692345161
 31
0.0
  0
LINE
  5
25E
  8
0
  6
CONTINUOUS
 10
-53.702321203454389
 20
7.9602677241730353
 30
0.0
 11
-52.502309409693787
 21
9.1602795179336436
 31
0.0
  0
LINE
  5
25F
  8
0
  6
CONTINUOUS
 10
-55.94738735321765
 20
7.9602677241730353
 30
0.0
 11
-54.747374210757933
 21
9.1602808666327746
 31
0.0
  0
ENDBLK
  5
B9
  8
0
  0
BLOCK
  8
0
  2
*D12
 70
     1
 10
0.0
 20
0.0
 30
0.0
  3
*D12
  1

  0
TEXT
  5
260
  8
0
 10
-37.51470935344696
 20
-17.543026999473561
 30
0.0
 40
4.1671876907348633
  1
１５０以上
  0
LINE
  5
261
  8
0
 62
     0
 10
8.019989013671875
 20
-20.58380126953125
 30
0.0
 11
-61.980026245117188
 21
-20.58380126953125
 31
0.0
  0
INSERT
  5
262
  8
0
  6
C_SOLID_L
 62
     0
  2
CCD_OARW
 10
8.019989013671875
 20
-20.58380126953125
 30
0.0
 50
179.9999999999998
  0
INSERT
  5
263
  8
0
  6
C_SOLID_L
 62
     0
  2
CCD_OARWRT
 10
-61.980026245117188
 20
-20.58380126953125
 30
0.0
  0
LINE
  5
264
  8
0
 62
     0
 10
8.0199890136718626
 20
4.3377722501754761
 30
0.0
 11
8.019989013671875
 21
-22.869796752929691
 31
0.0
  0
LINE
  5
265
  8
0
 62
     0
 10
-61.980026245117188
 20
6.0877722501754761
 30
0.0
 11
-61.980026245117188
 21
-22.869796752929691
 31
0.0
  0
ENDBLK
  5
BC
  8
0
  0
BLOCK
  8
0
  2
*D13
 70
     1
 10
0.0
 20
0.0
 30
0.0
  3
*D13
  1

  0
LINE
  5
266
  8
0
 62
     0
 10
88.495948791503906
 20
30.060272216796871
 30
0.0
 11
88.495948791503906
 21
-8.939727783203125
 31
0.0
  0
INSERT
  5
267
  8
0
  6
C_SOLID_L
 62
     0
  2
CCD_OARW
 10
88.495948791503906
 20
30.060272216796871
 30
0.0
 50
269.99999999999977
  0
INSERT
  5
268
  8
0
  6
C_SOLID_L
 62
     0
  2
CCD_OARWRT
 10
88.495948791503906
 20
-8.939727783203125
 30
0.0
 50
89.999999999999943
  0
LINE
  5
269
  8
0
 62
     0
 10
48.322475552558892
 20
30.060272216796871
 30
0.0
 11
90.781951904296875
 21
30.060272216796871
 31
0.0
  0
LINE
  5
26A
  8
0
 62
     0
 10
48.322475552558892
 20
-8.939727783203125
 30
0.0
 11
90.781951904296875
 21
-8.939727783203125
 31
0.0
  0
INSERT
  5
26B
  8
0
  2
*U16
 10
0.0
 20
0.0
 30
0.0
  0
ENDBLK
  5
BF
  8
0
  0
BLOCK
  8
0
  2
*D14
 70
     1
 10
0.0
 20
0.0
 30
0.0
  3
*D14
  1

  0
LINE
  5
26C
  8
0
 62
     0
 10
76.676322937011733
 20
12.56027221679682
 30
0.0
 11
76.676322937011719
 21
8.5602722167968217
 31
0.0
  0
LINE
  5
26D
  8
0
 62
     0
 10
76.676322937011733
 20
12.56027221679682
 30
0.0
 11
76.676322937011733
 21
18.91027212142939
 31
0.0
  0
LINE
  5
26E
  8
0
 62
     0
 10
76.676322937011719
 20
8.5602722167968217
 30
0.0
 11
76.67632293701169
 21
2.210272312164252
 31
0.0
  0
INSERT
  5
26F
  8
0
  6
C_SOLID_L
 62
     0
  2
CCD_IARW
 10
76.676322937011733
 20
12.56027221679682
 30
0.0
 50
269.99999999999977
  0
INSERT
  5
270
  8
0
  6
C_SOLID_L
 62
     0
  2
CCD_IARWRT
 10
76.676322937011719
 20
8.5602722167968217
 30
0.0
 50
89.999999999999943
  0
LINE
  5
271
  8
0
 62
     0
 10
70.022487759590163
 20
12.560272216796831
 30
0.0
 11
78.962326049804702
 21
12.56027221679682
 31
0.0
  0
LINE
  5
272
  8
0
 62
     0
 10
70.022472500801101
 20
8.560272216796827
 30
0.0
 11
78.962326049804673
 21
8.5602722167968217
 31
0.0
  0
INSERT
  5
273
  8
0
  2
*U17
 10
0.0
 20
0.0
 30
0.0
  0
LINE
  5
274
  8
0
 62
     0
 10
76.676322937011733
 20
48.83718109130853
 30
0.0
 11
76.676322937011733
 21
12.56027221679682
 31
0.0
  0
ENDBLK
  5
C2
  8
0
  0
BLOCK
  8
0
  2
CCD_IARW
 70
     0
 10
0.0
 20
0.0
 30
0.0
  3
CCD_IARW
  1

  0
POLYLINE
  5
275
  8
0
 62
     0
 66
     1
 10
0.0
 20
0.0
 30
0.0
  0
VERTEX
  5
342
  8
0
 62
     0
 10
-3.318260120477881
 20
-0.5835116150723501
 30
0.0
  0
VERTEX
  5
343
  8
0
 62
     0
 10
-0.5079999923706055
 20
0.0000000000000016
 30
0.0
  0
VERTEX
  5
344
  8
0
 62
     0
 10
-3.3182601204778761
 20
0.5835116150723715
 30
0.0
  0
SEQEND
  5
345
  8
0
 62
     0
  0
ENDBLK
  5
C5
  8
0
  0
BLOCK
  8
0
  2
*U16
 70
     1
 10
0.0
 20
0.0
 30
0.0
  3
*U16
  1

  0
TEXT
  5
338
  8
0
 10
85.455174521446224
 20
1.7677079439163239
 30
0.0
 40
4.1671876907348633
  1
\U+2205
 50
90.0
  0
TEXT
  5
339
  8
0
 10
85.455174521446224
 20
5.9348956346511867
 30
0.0
 40
4.1671876907348633
  1
40以下
 50
90.0
  0
ENDBLK
  5
33B
  8
0
  0
BLOCK
  8
0
  2
*U17
 70
     1
 10
0.0
 20
0.0
 30
0.0
  3
*U17
  1

  0
TEXT
  5
33D
  8
0
 10
73.635548666954051
 20
32.01960623264312
 30
0.0
 40
4.1671876907348633
  1
(
 50
90.0
  0
TEXT
  5
33E
  8
0
 10
73.635548666954051
 20
36.186793923377977
 30
0.0
 40
4.1671876907348633
  1
\U+2205
 50
90.0
  0
TEXT
  5
33F
  8
0
 10
73.635548666954051
 20
40.353981614112847
 30
0.0
 40
4.1671876907348633
  1
4)
 50
90.0
  0
ENDBLK
  5
341
  8
0
  0
ENDSEC
  0
SECTION
  2
ENTITIES
  0
POINT
  5
C6
  8
0
  6
CONTINUOUS
 10
0.0
 20
0.0
 30
0.0
  0
LINE
  5
C7
  8
0
  6
CONTINUOUS
 10
-114.643798828125
 20
4.560272216796875
 30
0.0
 11
-114.643798828125
 21
0.5098876953125
 31
0.0
  0
ARC
  5
C8
  8
0
  6
CONTINUOUS
 10
-102.84381103515619
 20
10.56027221679687
 30
0.0
 40
15.5
 50
220.42191510301461
 51
264.44656192668111
  0
LINE
  5
C9
  8
0
  6
CONTINUOUS
 10
-111.643798828125
 20
9.0602722167968768
 30
0.0
 11
-111.643798828125
 21
5.560272216796875
 31
0.0
  0
ARC
  5
CA
  8
0
  6
CONTINUOUS
 10
-112.643798828125
 20
5.560272216796875
 30
0.0
 40
1.0
 50
269.99999749552182
 51
0.000010017912262
  0
ARC
  5
CB
  8
0
  6
CONTINUOUS
 10
-102.84381103515619
 20
10.56027221679687
 30
0.0
 40
15.5
 50
275.55343306436242
 51
354.44657424955619
  0
ARC
  5
CC
  8
0
  6
CONTINUOUS
 10
-112.643798828125
 20
15.56027221679688
 30
0.0
 40
1.0
 50
0.000010017912262
 51
89.999988844099846
  0
LINE
  5
CD
  8
0
  6
CONTINUOUS
 10
-116.643798828125
 20
5.060272216796875
 30
0.0
 11
-113.1437988281249
 21
5.060272216796875
 31
0.0
  0
ARC
  5
CE
  8
0
  6
CONTINUOUS
 10
-113.1437988281249
 20
6.060272216796875
 30
0.0
 40
1.0
 50
269.99999749552182
 51
0.000010017912262
  0
ARC
  5
CF
  8
0
  6
CONTINUOUS
 10
-113.1437988281249
 20
15.06027221679688
 30
0.0
 40
1.0
 50
0.000010017912262
 51
89.999988844099846
  0
LINE
  5
D0
  8
0
  6
CONTINUOUS
 10
-113.1437988281249
 20
16.060272216796879
 30
0.0
 11
-116.643798828125
 21
16.060272216796879
 31
0.0
  0
LINE
  5
D1
  8
0
  6
CONTINUOUS
 10
-116.643798828125
 20
16.560272216796871
 30
0.0
 11
-117.94989013671869
 21
16.560272216796871
 31
0.0
  0
ARC
  5
D2
  8
0
  6
CONTINUOUS
 10
-102.84381103515619
 20
10.56027221679687
 30
0.0
 40
16.254045486450192
 50
201.6625273400077
 51
158.3374863203706
  0
LINE
  5
D3
  8
0
  6
CONTINUOUS
 10
-117.94989013671869
 20
4.560272216796875
 30
0.0
 11
-116.643798828125
 21
4.560272216796875
 31
0.0
  0
ARC
  5
D4
  8
0
  6
CONTINUOUS
 10
-102.84381103515619
 20
10.56027221679687
 30
0.0
 40
15.5
 50
5.5534441065770679
 51
84.446553275259205
  0
LINE
  5
D5
  8
0
  6
CONTINUOUS
 10
-112.643798828125
 20
4.560272216796875
 30
0.0
 11
-114.643798828125
 21
4.560272216796875
 31
0.0
  0
ARC
  5
D6
  8
0
  6
CONTINUOUS
 10
-102.84381103515619
 20
10.56027221679687
 30
0.0
 40
15.5
 50
95.553444903507938
 51
139.5780848969853
  0
LINE
  5
D7
  8
0
  6
CONTINUOUS
 10
-114.643798828125
 20
20.61065673828125
 30
0.0
 11
-114.643798828125
 21
16.560272216796871
 31
0.0
  0
LINE
  5
D8
  8
0
  6
CONTINUOUS
 10
-114.643798828125
 20
16.560272216796871
 30
0.0
 11
-112.643798828125
 21
16.560272216796871
 31
0.0
  0
LINE
  5
D9
  8
0
  6
CONTINUOUS
 10
-111.643798828125
 20
15.56027221679688
 30
0.0
 11
-111.643798828125
 21
12.06027221679688
 31
0.0
  0
LINE
  5
DA
  8
0
  6
CONTINUOUS
 10
-116.643798828125
 20
4.560272216796875
 30
0.0
 11
-116.643798828125
 21
5.060272216796875
 31
0.0
  0
LINE
  5
DB
  8
0
  6
CONTINUOUS
 10
-116.643798828125
 20
16.060272216796879
 30
0.0
 11
-116.643798828125
 21
16.560272216796871
 31
0.0
  0
ARC
  5
DC
  8
0
  6
CONTINUOUS
 10
-102.84381103515619
 20
10.56027221679687
 30
0.0
 40
16.79999923706055
 50
200.92483958888951
 51
159.0752013922453
  0
LINE
  5
DD
  8
0
  6
CONTINUOUS
 10
-118.5358581542969
 20
4.560272216796875
 30
0.0
 11
-117.94989013671869
 21
4.560272216796875
 31
0.0
  0
LINE
  5
DE
  8
0
  6
CONTINUOUS
 10
-117.94989013671869
 20
16.560272216796871
 30
0.0
 11
-118.5358581542969
 21
16.560272216796871
 31
0.0
  0
LINE
  5
DF
  8
0
  6
CONTINUOUS
 10
-115.643798828125
 20
16.060272216796879
 30
0.0
 11
-115.643798828125
 21
5.060272216796875
 31
0.0
  0
CIRCLE
  5
E0
  8
0
  6
CONTINUOUS
 10
-114.2438049316405
 20
8.560272216796875
 30
0.0
 40
0.5
  0
ARC
  5
E1
  8
0
  6
CONTINUOUS
 10
-114.2438049316405
 20
12.56027221679688
 30
0.0
 40
0.5
 50
180.00000865142201
 51
152.22244527721489
  0
ARC
  5
E2
  8
0
  6
CONTINUOUS
 10
-102.84381103515619
 20
10.56027221679687
 30
0.0
 40
16.79999923706055
 50
159.0751740714885
 51
200.924835946424
  0
LINE
  5
E3
  8
0
  6
C_CENTER_L
 10
-102.84381103515619
 20
-14.158843994140611
 30
0.0
 11
-102.84381103515619
 21
35.920745849609382
 31
0.0
  0
LINE
  5
E4
  8
0
  6
C_CENTER_L
 10
-79.31005859375
 20
10.56027221679687
 30
0.0
 11
-127.6358947753905
 21
10.56027221679687
 31
0.0
  0
ARC
  5
E5
  8
0
  6
CONTINUOUS
 10
-102.84381103515619
 20
10.56027221679687
 30
0.0
 40
16.69999885559082
 50
201.0560475228456
 51
159.0752013922453
  0
LINE
  5
E6
  8
0
  6
CONTINUOUS
 10
-104.34381103515619
 20
13.682769775390611
 30
0.0
 11
-104.34381103515619
 21
25.987518310546879
 31
0.0
  0
LINE
  5
E7
  8
0
  6
CONTINUOUS
 10
-101.34381103515619
 20
25.987518310546879
 30
0.0
 11
-101.34381103515619
 21
13.682769775390611
 31
0.0
  0
LINE
  5
E8
  8
0
  6
CONTINUOUS
 10
-99.721313476562514
 20
12.06027221679688
 30
0.0
 11
-87.416564941406264
 21
12.06027221679688
 31
0.0
  0
LINE
  5
E9
  8
0
  6
CONTINUOUS
 10
-87.416564941406264
 20
9.0602722167968768
 30
0.0
 11
-99.721313476562514
 21
9.0602722167968768
 31
0.0
  0
LINE
  5
EA
  8
0
  6
CONTINUOUS
 10
-101.34381103515619
 20
7.437774658203125
 30
0.0
 11
-101.34381103515619
 21
-4.86700439453125
 31
0.0
  0
LINE
  5
EB
  8
0
  6
CONTINUOUS
 10
-104.34381103515619
 20
-4.86700439453125
 30
0.0
 11
-104.34381103515619
 21
7.437774658203125
 31
0.0
  0
LINE
  5
EC
  8
0
  6
CONTINUOUS
 10
-105.96630859375
 20
9.0602722167968768
 30
0.0
 11
-111.643798828125
 21
9.0602722167968768
 31
0.0
  0
LINE
  5
ED
  8
0
  6
CONTINUOUS
 10
-111.643798828125
 20
12.06027221679688
 30
0.0
 11
-105.96630859375
 21
12.06027221679688
 31
0.0
  0
ARC
  5
EE
  8
0
  6
CONTINUOUS
 10
-102.84381103515619
 20
10.56027221679687
 30
0.0
 40
3.0
 50
308.68217621833662
 51
321.31797154134682
  0
ARC
  5
EF
  8
0
  6
CONTINUOUS
 10
-102.84381103515619
 20
10.56027221679687
 30
0.0
 40
3.0
 50
38.682212873760683
 51
51.31781695147415
  0
ARC
  5
F0
  8
0
  6
CONTINUOUS
 10
-102.84381103515619
 20
10.56027221679687
 30
0.0
 40
3.0
 50
128.6821846423876
 51
141.31778872010079
  0
ARC
  5
F1
  8
0
  6
CONTINUOUS
 10
-102.84381103515619
 20
10.56027221679687
 30
0.0
 40
3.0
 50
218.6820336949805
 51
231.31782901799059
  0
ARC
  5
F2
  8
0
  6
CONTINUOUS
 10
-100.34381103515619
 20
7.437774658203125
 30
0.0
 40
1.0
 50
128.6821983027659
 51
180.00000500895629
  0
ARC
  5
F3
  8
0
  6
CONTINUOUS
 10
-99.721313476562514
 20
8.060272216796875
 30
0.0
 40
1.0
 50
89.999995674288996
 51
141.31788434274941
  0
ARC
  5
F4
  8
0
  6
CONTINUOUS
 10
-105.34381103515599
 20
7.437774658203125
 30
0.0
 40
1.0
 50
0.0000086514222091
 51
51.317803291095821
  0
ARC
  5
F5
  8
0
  6
CONTINUOUS
 10
-105.96630859375
 20
8.060272216796875
 30
0.0
 40
1.0
 50
38.682117251112317
 51
89.999995674288996
  0
ARC
  5
F6
  8
0
  6
CONTINUOUS
 10
-105.96630859375
 20
13.06027221679688
 30
0.0
 40
1.0
 50
269.99999749552182
 51
321.31780761680682
  0
ARC
  5
F7
  8
0
  6
CONTINUOUS
 10
-105.34381103515599
 20
13.682769775390611
 30
0.0
 40
1.0
 50
308.68217621833662
 51
0.000010017912262
  0
ARC
  5
F8
  8
0
  6
CONTINUOUS
 10
-100.34381103515619
 20
13.682769775390611
 30
0.0
 40
1.0
 50
180.00000865142201
 51
231.31782901799059
  0
ARC
  5
F9
  8
0
  6
CONTINUOUS
 10
-99.721313476562514
 20
13.06027221679688
 30
0.0
 40
1.0
 50
218.68218395914229
 51
269.99999749552182
  0
LINE
  5
FA
  8
0
  6
CONTINUOUS
 10
-112.1437988281249
 20
6.060272216796875
 30
0.0
 11
-112.1437988281249
 21
15.06027221679688
 31
0.0
  0
LINE
  5
FB
  8
0
  6
CONTINUOUS
 10
-116.643798828125
 20
5.060272216796875
 30
0.0
 11
-116.643798828125
 21
16.560272216796871
 31
0.0
  0
LINE
  5
FC
  8
0
  6
C_CENTER_L
 10
94.563903808593764
 20
10.56027221679687
 30
0.0
 11
140.6509704589844
 21
10.56027221679687
 31
0.0
  0
LINE
  5
FD
  8
0
  6
C_CENTER_L
 10
117.0
 20
-14.18927001953125
 30
0.0
 11
117.0
 21
34.635650634765611
 31
0.0
  0
CIRCLE
  5
FE
  8
0
  6
CONTINUOUS
 10
117.0
 20
10.56027221679687
 30
0.0
 40
17.700000762939439
  0
CIRCLE
  5
FF
  8
0
  6
CONTINUOUS
 10
117.0
 20
-3.439727783203125
 30
0.0
 40
1.5
  0
CIRCLE
  5
100
  8
0
  6
CONTINUOUS
 10
117.0
 20
24.560272216796879
 30
0.0
 40
1.5
  0
ARC
  5
101
  8
0
  6
C_DASHED_L
 10
117.0
 20
24.560272216796879
 30
0.0
 40
1.299999952316284
 50
74.555913432514657
 51
344.74456394063583
  0
ARC
  5
102
  8
0
  6
C_DASHED_L
 10
117.0
 20
-3.439727783203125
 30
0.0
 40
1.299999952316284
 50
78.533767793805907
 51
342.36459818472309
  0
LINE
  5
103
  8
0
  6
C_CENTER_L
 10
114.5
 20
-3.439727783203125
 30
0.0
 11
119.5
 21
-3.439727783203125
 31
0.0
  0
LINE
  5
104
  8
0
  6
C_CENTER_L
 10
114.5
 20
24.560272216796879
 30
0.0
 11
119.5
 21
24.560272216796879
 31
0.0
  0
CIRCLE
  5
105
  8
0
  6
CONTINUOUS
 10
117.0
 20
10.56027221679687
 30
0.0
 40
2.099999904632567
  0
LINE
  5
106
  8
0
  6
CONTINUOUS
 10
46.099975585937493
 20
10.56027221679687
 30
0.0
 11
46.099975585937493
 21
30.060272216796871
 31
0.0
  0
LINE
  5
107
  8
0
  6
CONTINUOUS
 10
15.0999755859375
 20
30.060272216796871
 30
0.0
 11
46.099975585937493
 21
30.060272216796871
 31
0.0
  0
LINE
  5
108
  8
0
  6
CONTINUOUS
 10
15.0999755859375
 20
7.21832275390625
 30
0.0
 11
15.0999755859375
 21
30.060272216796871
 31
0.0
  0
LINE
  5
109
  8
0
  6
CONTINUOUS
 10
15.0999755859375
 20
-8.939727783203125
 30
0.0
 11
46.099975585937493
 21
-8.939727783203125
 31
0.0
  0
LINE
  5
10A
  8
0
  6
CONTINUOUS
 10
15.099975585937489
 20
-8.9397277832031463
 30
0.0
 11
15.099975585937511
 21
10.56027221679685
 31
0.0
  0
LINE
  5
10B
  8
0
  6
C_CENTER_L
 10
-1.4488105773925779
 20
10.56027221679687
 30
0.0
 11
72.978309631347656
 21
10.56027221679687
 31
0.0
  0
LINE
  5
10C
  8
0
  6
CONTINUOUS
 10
46.099975585937493
 20
-8.939727783203125
 30
0.0
 11
46.099975585937493
 21
10.56027221679687
 31
0.0
  0
LINE
  5
10D
  8
0
  6
CONTINUOUS
 10
8.519989013671875
 20
10.56027221679687
 30
0.0
 11
8.519989013671875
 21
13.56027221679688
 31
0.0
  0
LINE
  5
10E
  8
0
  6
CONTINUOUS
 10
8.519989013671875
 20
7.560272216796875
 30
0.0
 11
8.519989013671875
 21
10.56027221679687
 31
0.0
  0
CIRCLE
  5
10F
  8
0
  6
CONTINUOUS
 10
117.0
 20
10.56027221679687
 30
0.0
 40
20.0
  0
LINE
  5
110
  8
0
  6
CONTINUOUS
 10
10.01998901367188
 20
-6.13970947265625
 30
0.0
 11
15.0999755859375
 21
-6.13970947265625
 31
0.0
  0
LINE
  5
111
  8
0
  6
CONTINUOUS
 10
8.5200279468847686
 20
-5.5937734549003304
 30
0.0
 11
10.01998208813208
 21
-6.139709989386815
 31
0.0
  0
LINE
  5
112
  8
0
  6
CONTINUOUS
 10
8.519989013671875
 20
11.81027221679687
 30
0.0
 11
8.519989013671875
 21
26.714263916015621
 31
0.0
  0
LINE
  5
113
  8
0
  6
CONTINUOUS
 10
8.519989013671875
 20
-5.593719482421875
 30
0.0
 11
8.519989013671875
 21
9.3102722167968768
 31
0.0
  0
LINE
  5
114
  8
0
  6
CONTINUOUS
 10
8.5199686564230888
 20
26.714163430133681
 30
0.0
 11
10.019941617053741
 21
27.260106814288861
 31
0.0
  0
LINE
  5
115
  8
0
  6
CONTINUOUS
 10
10.020019531249989
 20
27.26025390625
 30
0.0
 11
15.0999755859375
 21
27.26025390625
 31
0.0
  0
CIRCLE
  5
116
  8
0
  6
CONTINUOUS
 10
-102.84381103515619
 20
10.56027221679687
 30
0.0
 40
20.0
  0
LINE
  5
117
  8
0
  6
CONTINUOUS
 10
-1.480010986328125
 20
6.2569580078125
 30
0.0
 11
8.519989013671875
 21
6.2569580078125
 31
0.0
  0
LINE
  5
118
  8
0
  6
CONTINUOUS
 10
-1.480010986328125
 20
4.2569580078125
 30
0.0
 11
8.519989013671875
 21
4.2569580078125
 31
0.0
  0
LINE
  5
119
  8
0
  6
CONTINUOUS
 10
-1.980010986328125
 20
4.7569580078125
 30
0.0
 11
-1.980010986328125
 21
5.7569580078125
 31
0.0
  0
ARC
  5
11A
  8
0
  6
CONTINUOUS
 10
-1.480010986328125
 20
4.7569580078125
 30
0.0
 40
0.5
 50
180.00000865142201
 51
269.99999749552182
  0
ARC
  5
11B
  8
0
  6
CONTINUOUS
 10
-1.480010986328125
 20
5.7569580078125
 30
0.0
 40
0.5
 50
90.000002504478175
 51
180.00000500895629
  0
CIRCLE
  5
11D
  8
0
  6
CONTINUOUS
 10
-102.84381103515619
 20
10.56027221679687
 30
0.0
 40
18.200000762939439
  0
CIRCLE
  5
120
  8
0
  6
CONTINUOUS
 10
-108.1471252441404
 20
5.2569580078125
 30
0.0
 40
1.5
  0
CIRCLE
  5
121
  8
0
  6
CONTINUOUS
 10
-108.1471252441404
 20
15.86358642578125
 30
0.0
 40
1.5
  0
CIRCLE
  5
122
  8
0
  6
CONTINUOUS
 10
-97.540527343750014
 20
15.86358642578125
 30
0.0
 40
1.5
  0
CIRCLE
  5
123
  8
0
  6
CONTINUOUS
 10
-97.540527343750014
 20
5.2569580078125
 30
0.0
 40
1.5
  0
CIRCLE
  5
124
  8
0
  6
CONTINUOUS
 10
-108.1471252441404
 20
5.2569580078125
 30
0.0
 40
1.0
  0
LINE
  5
126
  8
0
  6
CONTINUOUS
 10
45.79999121328126
 20
-4.4397213416507384
 30
0.0
 11
46.099990301070527
 21
-4.1397219251168709
 31
0.0
  0
LINE
  5
127
  8
0
  6
CONTINUOUS
 10
38.0999755859375
 20
23.060272216796871
 30
0.0
 11
38.0999755859375
 21
-1.939727783203125
 31
0.0
  0
LINE
  5
128
  8
0
  6
CONTINUOUS
 10
45.0999755859375
 20
23.060272216796871
 30
0.0
 11
45.0999755859375
 21
-1.939727783203125
 31
0.0
  0
LINE
  5
129
  8
0
  6
CONTINUOUS
 10
39.5999755859375
 20
-3.439727783203125
 30
0.0
 11
43.599975585937493
 21
-3.439727783203125
 31
0.0
  0
LINE
  5
12A
  8
0
  6
CONTINUOUS
 10
39.5999755859375
 20
24.560272216796879
 30
0.0
 11
43.599975585937493
 21
24.560272216796879
 31
0.0
  0
ARC
  5
12B
  8
0
  6
CONTINUOUS
 10
39.5999755859375
 20
23.060272216796871
 30
0.0
 40
1.5
 50
90.000002504478175
 51
180.00000500895629
  0
ARC
  5
12C
  8
0
  6
CONTINUOUS
 10
43.599975585937493
 20
23.060272216796871
 30
0.0
 40
1.5
 50
0.000010017912262
 51
89.999988844099846
  0
ARC
  5
12D
  8
0
  6
CONTINUOUS
 10
39.5999755859375
 20
-1.939727783203125
 30
0.0
 40
1.5
 50
180.00000865142201
 51
269.99999749552182
  0
ARC
  5
12E
  8
0
  6
CONTINUOUS
 10
43.599975585937493
 20
-1.939727783203125
 30
0.0
 40
1.5
 50
269.99999749552182
 51
0.000010017912262
  0
LINE
  5
12F
  8
0
  6
CONTINUOUS
 10
67.799987792968764
 20
12.560272216796831
 30
0.0
 11
46.099975585937493
 21
12.560272216796831
 31
0.0
  0
LINE
  5
130
  8
0
  6
CONTINUOUS
 10
46.099975585937493
 20
8.5602722167968448
 30
0.0
 11
67.799972534179687
 21
8.560272216796827
 31
0.0
  0
LINE
  5
131
  8
0
  6
CONTINUOUS
 10
1.8199615478515681
 20
9.7602691650390607
 30
0.0
 11
1.8199615478515689
 21
11.36027526855468
 31
0.0
  0
LINE
  5
132
  8
0
  6
CONTINUOUS
 10
68.0999755859375
 20
8.8602752685546502
 30
0.0
 11
68.0999755859375
 21
12.260269165039031
 31
0.0
  0
LINE
  5
133
  8
0
  6
CONTINUOUS
 10
68.099944352364673
 20
8.8602682835598916
 30
0.0
 11
67.799949926029043
 21
8.5602750204534441
 31
0.0
  0
LINE
  5
134
  8
0
  6
CONTINUOUS
 10
68.100018056928775
 20
12.260282773804651
 30
0.0
 11
67.800025957051503
 21
12.56027838865702
 31
0.0
  0
LINE
  5
135
  8
0
  6
CONTINUOUS
 10
67.7999888618928
 20
8.5602916717590691
 30
0.0
 11
67.799996491290059
 21
12.560291671759069
 31
0.0
  0
LINE
  5
136
  8
0
  6
CONTINUOUS
 10
2.3199615478515678
 20
11.560272216796839
 30
0.0
 11
6.1199893951416069
 21
11.560272216796839
 31
0.0
  0
LINE
  5
137
  8
0
  6
CONTINUOUS
 10
2.3199615478515678
 20
9.5602722167968732
 30
0.0
 11
6.1199893951416069
 21
9.5602722167968732
 31
0.0
  0
LINE
  5
138
  8
0
  6
CONTINUOUS
 10
2.3199615478515678
 20
9.5602722167968732
 30
0.0
 11
2.3199615478515678
 21
11.54232788085937
 31
0.0
  0
LINE
  5
139
  8
0
  6
CONTINUOUS
 10
1.8199615478515681
 20
9.7602691650390607
 30
0.0
 11
6.1199893951416069
 21
9.7602691650390607
 31
0.0
  0
LINE
  5
13A
  8
0
  6
CONTINUOUS
 10
1.8199615478515689
 20
11.36027526855468
 30
0.0
 11
6.1199893951416069
 21
11.36027526855468
 31
0.0
  0
LINE
  5
13B
  8
0
  6
CONTINUOUS
 10
1.8199717580107511
 20
9.7602857037150006
 30
0.0
 11
2.3199687611020181
 21
9.5602871079049692
 31
0.0
  0
LINE
  5
13C
  8
0
  6
CONTINUOUS
 10
1.8199579874642491
 20
11.36026503470339
 30
0.0
 11
2.3199549905555159
 21
11.56026363051342
 31
0.0
  0
LINE
  5
13D
  8
0
  6
CONTINUOUS
 10
8.519989013671875
 20
8.060272216796875
 30
0.0
 11
8.519989013671875
 21
13.06027221679688
 31
0.0
  0
LINE
  5
13E
  8
0
  6
CONTINUOUS
 10
8.519989013671875
 20
8.060272216796875
 30
0.0
 11
8.519989013671875
 21
13.06027221679688
 31
0.0
  0
LINE
  5
13F
  8
0
  6
CONTINUOUS
 10
8.2199897766113263
 20
13.06027221679688
 30
0.0
 11
8.519989013671875
 21
13.06027221679688
 31
0.0
  0
LINE
  5
140
  8
0
  6
CONTINUOUS
 10
8.2199897766113263
 20
8.060272216796875
 30
0.0
 11
8.519989013671875
 21
8.060272216796875
 31
0.0
  0
LINE
  5
141
  8
0
  6
CONTINUOUS
 10
8.2199897766113263
 20
8.060272216796875
 30
0.0
 11
8.2199897766113263
 21
13.06027221679688
 31
0.0
  0
LINE
  5
142
  8
0
  6
CONTINUOUS
 10
7.7199897766113272
 20
12.76025390625
 30
0.0
 11
8.2199897766113263
 21
12.76025390625
 31
0.0
  0
LINE
  5
143
  8
0
  6
CONTINUOUS
 10
7.7199897766113272
 20
8.36029052734375
 30
0.0
 11
8.2199897766113263
 21
8.36029052734375
 31
0.0
  0
LINE
  5
144
  8
0
  6
CONTINUOUS
 10
7.7199897766113272
 20
8.36029052734375
 30
0.0
 11
7.7199897766113272
 21
12.76025390625
 31
0.0
  0
LINE
  5
145
  8
0
  6
CONTINUOUS
 10
6.1199893951416016
 20
8.940277099609375
 30
0.0
 11
6.1199893951416016
 21
12.18026733398438
 31
0.0
  0
LINE
  5
146
  8
0
  6
CONTINUOUS
 10
6.3165321350097656
 20
12.72027587890625
 30
0.0
 11
7.5234451293945313
 21
12.72027587890625
 31
0.0
  0
LINE
  5
147
  8
0
  6
CONTINUOUS
 10
6.3165321350097656
 20
8.4002685546875
 30
0.0
 11
7.5234451293945313
 21
8.4002685546875
 31
0.0
  0
LINE
  5
148
  8
0
  6
CONTINUOUS
 10
6.3165322001596547
 20
8.4002677694203953
 30
0.0
 11
6.1199916880805736
 21
8.9402583690295501
 31
0.0
  0
LINE
  5
149
  8
0
  6
CONTINUOUS
 10
7.5234544267788692
 20
8.4002840094611315
 30
0.0
 11
7.7199949388579512
 21
8.9402746090702863
 31
0.0
  0
LINE
  5
14A
  8
0
  6
CONTINUOUS
 10
6.1200010437705421
 20
12.18027627693553
 30
0.0
 11
6.3165415558496241
 21
12.720266876544679
 31
0.0
  0
LINE
  5
14B
  8
0
  6
CONTINUOUS
 10
7.7199940357425021
 20
12.18026260594092
 30
0.0
 11
7.5234430860366501
 21
12.72028188269292
 31
0.0
  0
LINE
  5
14C
  8
0
  6
CONTINUOUS
 10
6.3199882507324219
 20
9.48028564453125
 30
0.0
 11
7.519989013671875
 21
9.48028564453125
 31
0.0
  0
LINE
  5
14D
  8
0
  6
CONTINUOUS
 10
6.3199882507324219
 20
11.6402587890625
 30
0.0
 11
7.519989013671875
 21
11.6402587890625
 31
0.0
  0
ARC
  5
14E
  8
0
  6
CONTINUOUS
 10
9.1359882354736328
 20
10.56027221679687
 30
0.0
 40
3.0160002708435059
 50
159.0170491616519
 51
200.9829608562608
  0
ARC
  5
14F
  8
0
  6
CONTINUOUS
 10
4.7039871215820313
 20
10.56027221679687
 30
0.0
 40
3.0160009860992432
 50
339.0170492753374
 51
20.982954139757169
  0
ARC
  5
150
  8
0
  6
CONTINUOUS
 10
6.6992816925048819
 20
9.04241943359375
 30
0.0
 40
0.5792920589447022
 50
130.9007803489695
 51
200.00000101204759
  0
ARC
  5
151
  8
0
  6
CONTINUOUS
 10
6.6992816925048819
 20
12.078125
 30
0.0
 40
0.5792924165725708
 50
159.99999534548661
 51
229.09920234818651
  0
ARC
  5
152
  8
0
  6
CONTINUOUS
 10
7.1406974792480469
 20
9.04241943359375
 30
0.0
 40
0.5792923569679263
 50
340.0000022893613
 51
49.099204169419359
  0
ARC
  5
153
  8
0
  6
CONTINUOUS
 10
7.1406955718994141
 20
12.078125
 30
0.0
 40
0.5792927145957947
 50
310.9008060758643
 51
20.000001125733132
  0
CIRCLE
  5
154
  8
0
  6
CONTINUOUS
 10
-102.84381103515619
 20
10.56027221679687
 30
0.0
 40
2.160000085830688
  0
LINE
  5
155
  8
0
  6
CONTINUOUS
 10
-102.8438378161395
 20
8.4002790897820852
 30
0.0
 11
-104.7144559549655
 21
9.4802807920905234
 31
0.0
  0
LINE
  5
156
  8
0
  6
CONTINUOUS
 10
-104.71441650390619
 20
9.4802703857421875
 30
0.0
 11
-104.71441650390619
 21
11.640274047851561
 31
0.0
  0
LINE
  5
157
  8
0
  6
CONTINUOUS
 10
-104.7144431880064
 20
11.640265741998061
 30
0.0
 11
-102.8438253066729
 21
12.720267830545231
 31
0.0
  0
LINE
  5
158
  8
0
  6
CONTINUOUS
 10
-102.8437956080864
 20
12.720252728678579
 30
0.0
 11
-100.9731843340019
 21
11.64025445482957
 31
0.0
  0
LINE
  5
159
  8
0
  6
CONTINUOUS
 10
-100.97320556640619
 20
11.640274047851561
 30
0.0
 11
-100.97320556640619
 21
9.4802703857421875
 31
0.0
  0
LINE
  5
15A
  8
0
  6
CONTINUOUS
 10
-100.97323462547639
 20
9.4802573788401787
 30
0.0
 11
-102.8438527643025
 21
8.4002556765317422
 31
0.0
  0
CIRCLE
  5
15B
  8
0
  6
CONTINUOUS
 10
-102.84381103515619
 20
10.56027221679687
 30
0.0
 40
1.0
  0
CIRCLE
  5
15C
  8
0
  6
CONTINUOUS
 10
-102.84381103515619
 20
10.56027221679687
 30
0.0
 40
0.8000000119209291
  0
CIRCLE
  5
15D
  8
0
  6
CONTINUOUS
 10
-102.84381103515619
 20
10.56027221679687
 30
0.0
 40
1.8706151247024541
  0
CIRCLE
  5
15E
  8
0
  6
CONTINUOUS
 10
-102.84381103515619
 20
10.56027221679687
 30
0.0
 40
2.160000085830688
  0
CIRCLE
  5
15F
  8
0
  6
CONTINUOUS
 10
-102.84381103515619
 20
10.56027221679687
 30
0.0
 40
1.0
  0
CIRCLE
  5
160
  8
0
  6
CONTINUOUS
 10
117.0
 20
10.56027221679687
 30
0.0
 40
2.0
  0
CIRCLE
  5
161
  8
0
  6
CONTINUOUS
 10
117.0
 20
10.56027221679687
 30
0.0
 40
1.799999952316284
  0
LINE
  5
162
  8
0
  6
CONTINUOUS
 10
-25.380020141601559
 20
7.96026611328125
 30
0.0
 11
-1.980010986328125
 21
7.96026611328125
 31
0.0
  0
LINE
  5
163
  8
0
  6
CONTINUOUS
 10
-25.980010986328121
 20
9.1602783203125
 30
0.0
 11
-1.980010986328125
 21
9.1602783203125
 31
0.0
  0
LINE
  5
164
  8
0
  6
CONTINUOUS
 10
-55.98002624511718
 20
9.1602783203125
 30
0.0
 11
-55.98002624511718
 21
7.96026611328125
 31
0.0
  0
LINE
  5
165
  8
0
  6
CONTINUOUS
 10
-61.980026245117188
 20
8.810272216796875
 30
0.0
 11
-61.980026245117188
 21
8.310272216796875
 31
0.0
  0
LINE
  5
166
  8
0
  6
CONTINUOUS
 10
-61.980026245117188
 20
8.310272216796875
 30
0.0
 11
-55.98002624511718
 21
8.310272216796875
 31
0.0
  0
LINE
  5
167
  8
0
  6
CONTINUOUS
 10
-61.980026245117188
 20
8.810272216796875
 30
0.0
 11
-55.98002624511718
 21
8.810272216796875
 31
0.0
  0
POLYLINE
  5
168
  8
0
  6
CONTINUOUS
 66
     1
 10
0.0
 20
0.0
 30
0.0
 70
   128
  0
VERTEX
  5
2CB
  8
0
  6
CONTINUOUS
 10
-25.380020141601559
 20
9.8602752685546875
 30
0.0
  0
VERTEX
  5
2CC
  8
0
  6
CONTINUOUS
 10
-25.58089460403426
 20
9.7190202451311034
 30
0.0
  0
VERTEX
  5
2CD
  8
0
  6
CONTINUOUS
 10
-25.77166976453735
 20
9.5496933273971063
 30
0.0
  0
VERTEX
  5
2CE
  8
0
  6
CONTINUOUS
 10
-25.852105169578849
 20
9.4571165418601595
 30
0.0
  0
VERTEX
  5
2CF
  8
0
  6
CONTINUOUS
 10
-25.902226651756909
 20
9.3850794708459944
 30
0.0
  0
VERTEX
  5
2D0
  8
0
  6
CONTINUOUS
 10
-25.95649391795725
 20
9.2738947738404232
 30
0.0
  0
VERTEX
  5
2D1
  8
0
  6
CONTINUOUS
 10
-25.980010986328121
 20
9.1602783203125
 30
0.0
  0
VERTEX
  5
2D2
  8
0
  6
CONTINUOUS
 10
-25.976467961440569
 20
9.0861409230856225
 30
0.0
  0
VERTEX
  5
2D3
  8
0
  6
CONTINUOUS
 10
-25.93875188261228
 20
8.9555991666365991
 30
0.0
  0
VERTEX
  5
2D4
  8
0
  6
CONTINUOUS
 10
-25.889422797349368
 20
8.8571578407911318
 30
0.0
  0
VERTEX
  5
2D5
  8
0
  6
CONTINUOUS
 10
-25.792122484835708
 20
8.7089032629652614
 30
0.0
  0
VERTEX
  5
2D6
  8
0
  6
CONTINUOUS
 10
-25.680015572211481
 20
8.560272216796875
 30
0.0
  0
VERTEX
  5
2D7
  8
0
  6
CONTINUOUS
 10
-25.566209400705169
 20
8.4092839872464502
 30
0.0
  0
VERTEX
  5
2D8
  8
0
  6
CONTINUOUS
 10
-25.490192781667101
 20
8.2962802406545961
 30
0.0
  0
VERTEX
  5
2D9
  8
0
  6
CONTINUOUS
 10
-25.442849932754459
 20
8.2117732875874463
 30
0.0
  0
VERTEX
  5
2DA
  8
0
  6
CONTINUOUS
 10
-25.393995194859439
 20
8.0855762799959319
 30
0.0
  0
VERTEX
  5
2DB
  8
0
  6
CONTINUOUS
 10
-25.380020141601559
 20
7.96026611328125
 30
0.0
  0
VERTEX
  5
2DC
  8
0
  6
CONTINUOUS
 10
-25.399289368622561
 20
7.8591808438650324
 30
0.0
  0
VERTEX
  5
2DD
  8
0
  6
CONTINUOUS
 10
-25.430296419835681
 20
7.784484872326173
 30
0.0
  0
VERTEX
  5
2DE
  8
0
  6
CONTINUOUS
 10
-25.49889950747346
 20
7.6752943519542214
 30
0.0
  0
VERTEX
  5
2DF
  8
0
  6
CONTINUOUS
 10
-25.588361358117801
 20
7.5708511061966419
 30
0.0
  0
VERTEX
  5
2E0
  8
0
  6
CONTINUOUS
 10
-25.779136521917479
 20
7.4015241940505803
 30
0.0
  0
VERTEX
  5
2E1
  8
0
  6
CONTINUOUS
 10
-25.980010986328121
 20
7.2602691650390616
 30
0.0
  0
SEQEND
  5
2E2
  8
0
  6
CONTINUOUS
  0
POLYLINE
  5
181
  8
0
  6
CONTINUOUS
 66
     1
 10
0.0
 20
0.0
 30
0.0
 70
   128
  0
VERTEX
  5
2E3
  8
0
  6
CONTINUOUS
 10
-25.980010986328121
 20
9.8602752685546875
 30
0.0
  0
VERTEX
  5
2E4
  8
0
  6
CONTINUOUS
 10
-26.180885448760819
 20
9.7190202451311034
 30
0.0
  0
VERTEX
  5
2E5
  8
0
  6
CONTINUOUS
 10
-26.37166060926393
 20
9.5496933273971063
 30
0.0
  0
VERTEX
  5
2E6
  8
0
  6
CONTINUOUS
 10
-26.452096014305429
 20
9.4571165418601595
 30
0.0
  0
VERTEX
  5
2E7
  8
0
  6
CONTINUOUS
 10
-26.502217496483471
 20
9.3850794708459944
 30
0.0
  0
VERTEX
  5
2E8
  8
0
  6
CONTINUOUS
 10
-26.556484762683802
 20
9.2738947738404232
 30
0.0
  0
VERTEX
  5
2E9
  8
0
  6
CONTINUOUS
 10
-26.580001831054691
 20
9.1602783203125
 30
0.0
  0
VERTEX
  5
2EA
  8
0
  6
CONTINUOUS
 10
-26.576458806167139
 20
9.0861409230856225
 30
0.0
  0
VERTEX
  5
2EB
  8
0
  6
CONTINUOUS
 10
-26.53874272733885
 20
8.9555991666365991
 30
0.0
  0
VERTEX
  5
2EC
  8
0
  6
CONTINUOUS
 10
-26.489413642075942
 20
8.8571578407911318
 30
0.0
  0
VERTEX
  5
2ED
  8
0
  6
CONTINUOUS
 10
-26.392113329562271
 20
8.7089032629652614
 30
0.0
  0
VERTEX
  5
2EE
  8
0
  6
CONTINUOUS
 10
-26.280006416938029
 20
8.560272216796875
 30
0.0
  0
VERTEX
  5
2EF
  8
0
  6
CONTINUOUS
 10
-26.166200245431721
 20
8.4092839872464502
 30
0.0
  0
VERTEX
  5
2F0
  8
0
  6
CONTINUOUS
 10
-26.090183626393671
 20
8.2962802406545961
 30
0.0
  0
VERTEX
  5
2F1
  8
0
  6
CONTINUOUS
 10
-26.042840777481022
 20
8.2117732875874463
 30
0.0
  0
VERTEX
  5
2F2
  8
0
  6
CONTINUOUS
 10
-25.993986039586009
 20
8.0855762799959319
 30
0.0
  0
VERTEX
  5
2F3
  8
0
  6
CONTINUOUS
 10
-25.980010986328121
 20
7.96026611328125
 30
0.0
  0
VERTEX
  5
2F4
  8
0
  6
CONTINUOUS
 10
-25.99928021334912
 20
7.8591808438650324
 30
0.0
  0
VERTEX
  5
2F5
  8
0
  6
CONTINUOUS
 10
-26.03028726456224
 20
7.784484872326173
 30
0.0
  0
VERTEX
  5
2F6
  8
0
  6
CONTINUOUS
 10
-26.098890352200041
 20
7.6752943519542214
 30
0.0
  0
VERTEX
  5
2F7
  8
0
  6
CONTINUOUS
 10
-26.188352202844371
 20
7.5708511061966419
 30
0.0
  0
VERTEX
  5
2F8
  8
0
  6
CONTINUOUS
 10
-26.379127366644049
 20
7.4015241940505803
 30
0.0
  0
VERTEX
  5
2F9
  8
0
  6
CONTINUOUS
 10
-26.580001831054691
 20
7.2602691650390616
 30
0.0
  0
SEQEND
  5
2FA
  8
0
  6
CONTINUOUS
  0
LINE
  5
19A
  8
0
  6
CONTINUOUS
 10
-55.98002624511718
 20
7.96026611328125
 30
0.0
 11
-25.980010986328121
 21
7.96026611328125
 31
0.0
  0
LINE
  5
19B
  8
0
  6
CONTINUOUS
 10
-55.98002624511718
 20
9.1602783203125
 30
0.0
 11
-26.580001831054691
 21
9.1602783203125
 31
0.0
  0
LINE
  5
19C
  8
0
  6
CONTINUOUS
 10
-25.480010986328121
 20
11.96026611328125
 30
0.0
 11
-2.08001708984375
 21
11.96026611328125
 31
0.0
  0
LINE
  5
19D
  8
0
  6
CONTINUOUS
 10
-26.080001831054691
 20
13.1602783203125
 30
0.0
 11
-2.08001708984375
 21
13.1602783203125
 31
0.0
  0
LINE
  5
19E
  8
0
  6
CONTINUOUS
 10
-56.080001831054688
 20
13.1602783203125
 30
0.0
 11
-56.080001831054688
 21
11.96026611328125
 31
0.0
  0
LINE
  5
19F
  8
0
  6
CONTINUOUS
 10
-62.08000183105468
 20
12.81027221679688
 30
0.0
 11
-62.08000183105468
 21
12.31027221679688
 31
0.0
  0
LINE
  5
1A0
  8
0
  6
CONTINUOUS
 10
-62.08000183105468
 20
12.31027221679688
 30
0.0
 11
-56.080001831054688
 21
12.31027221679688
 31
0.0
  0
LINE
  5
1A1
  8
0
  6
CONTINUOUS
 10
-62.08000183105468
 20
12.81027221679688
 30
0.0
 11
-56.080001831054688
 21
12.81027221679688
 31
0.0
  0
POLYLINE
  5
1A2
  8
0
  6
CONTINUOUS
 66
     1
 10
0.0
 20
0.0
 30
0.0
 70
   128
  0
VERTEX
  5
2FB
  8
0
  6
CONTINUOUS
 10
-25.480010986328121
 20
13.86027526855468
 30
0.0
  0
VERTEX
  5
2FC
  8
0
  6
CONTINUOUS
 10
-25.680885448760812
 20
13.719020245131111
 30
0.0
  0
VERTEX
  5
2FD
  8
0
  6
CONTINUOUS
 10
-25.87166060926393
 20
13.549693327397099
 30
0.0
  0
VERTEX
  5
2FE
  8
0
  6
CONTINUOUS
 10
-25.952096014305429
 20
13.457116541860159
 30
0.0
  0
VERTEX
  5
2FF
  8
0
  6
CONTINUOUS
 10
-26.00221749648346
 20
13.385079470845991
 30
0.0
  0
VERTEX
  5
300
  8
0
  6
CONTINUOUS
 10
-26.056484762683802
 20
13.27389477384042
 30
0.0
  0
VERTEX
  5
301
  8
0
  6
CONTINUOUS
 10
-26.080001831054691
 20
13.1602783203125
 30
0.0
  0
VERTEX
  5
302
  8
0
  6
CONTINUOUS
 10
-26.076458806167128
 20
13.086140923085599
 30
0.0
  0
VERTEX
  5
303
  8
0
  6
CONTINUOUS
 10
-26.03874272733885
 20
12.955599166636601
 30
0.0
  0
VERTEX
  5
304
  8
0
  6
CONTINUOUS
 10
-25.989413642075931
 20
12.85715784079113
 30
0.0
  0
VERTEX
  5
305
  8
0
  6
CONTINUOUS
 10
-25.89211332956226
 20
12.70890326296526
 30
0.0
  0
VERTEX
  5
306
  8
0
  6
CONTINUOUS
 10
-25.780006416938029
 20
12.56027221679688
 30
0.0
  0
VERTEX
  5
307
  8
0
  6
CONTINUOUS
 10
-25.666200245431739
 20
12.409283987246431
 30
0.0
  0
VERTEX
  5
308
  8
0
  6
CONTINUOUS
 10
-25.590183626393671
 20
12.2962802406546
 30
0.0
  0
VERTEX
  5
309
  8
0
  6
CONTINUOUS
 10
-25.542840777481022
 20
12.21177328758745
 30
0.0
  0
VERTEX
  5
30A
  8
0
  6
CONTINUOUS
 10
-25.493986039586002
 20
12.08557627999593
 30
0.0
  0
VERTEX
  5
30B
  8
0
  6
CONTINUOUS
 10
-25.480010986328121
 20
11.96026611328125
 30
0.0
  0
VERTEX
  5
30C
  8
0
  6
CONTINUOUS
 10
-25.49928021334912
 20
11.859180843865021
 30
0.0
  0
VERTEX
  5
30D
  8
0
  6
CONTINUOUS
 10
-25.53028726456224
 20
11.784484872326169
 30
0.0
  0
VERTEX
  5
30E
  8
0
  6
CONTINUOUS
 10
-25.598890352200041
 20
11.67529435195422
 30
0.0
  0
VERTEX
  5
30F
  8
0
  6
CONTINUOUS
 10
-25.688352202844371
 20
11.57085110619664
 30
0.0
  0
VERTEX
  5
310
  8
0
  6
CONTINUOUS
 10
-25.879127366644049
 20
11.401524194050561
 30
0.0
  0
VERTEX
  5
311
  8
0
  6
CONTINUOUS
 10
-26.080001831054691
 20
11.260269165039061
 30
0.0
  0
SEQEND
  5
312
  8
0
  6
CONTINUOUS
  0
POLYLINE
  5
1BB
  8
0
  6
CONTINUOUS
 66
     1
 10
0.0
 20
0.0
 30
0.0
 70
   128
  0
VERTEX
  5
313
  8
0
  6
CONTINUOUS
 10
-26.080001831054691
 20
13.86027526855468
 30
0.0
  0
VERTEX
  5
314
  8
0
  6
CONTINUOUS
 10
-26.280878677673169
 20
13.719020245131111
 30
0.0
  0
VERTEX
  5
315
  8
0
  6
CONTINUOUS
 10
-26.47165908338502
 20
13.549693327397099
 30
0.0
  0
VERTEX
  5
316
  8
0
  6
CONTINUOUS
 10
-26.552097289844799
 20
13.457116541860159
 30
0.0
  0
VERTEX
  5
317
  8
0
  6
CONTINUOUS
 10
-26.602220657951079
 20
13.385079470845991
 30
0.0
  0
VERTEX
  5
318
  8
0
  6
CONTINUOUS
 10
-26.656490045820661
 20
13.27389477384042
 30
0.0
  0
VERTEX
  5
319
  8
0
  6
CONTINUOUS
 10
-26.680007934570298
 20
13.1602783203125
 30
0.0
  0
VERTEX
  5
31A
  8
0
  6
CONTINUOUS
 10
-26.67646473831941
 20
13.086140923085599
 30
0.0
  0
VERTEX
  5
31B
  8
0
  6
CONTINUOUS
 10
-26.63874763352289
 20
12.955599166636601
 30
0.0
  0
VERTEX
  5
31C
  8
0
  6
CONTINUOUS
 10
-26.58941729400312
 20
12.85715784079113
 30
0.0
  0
VERTEX
  5
31D
  8
0
  6
CONTINUOUS
 10
-26.492114563148711
 20
12.70890326296526
 30
0.0
  0
VERTEX
  5
31E
  8
0
  6
CONTINUOUS
 10
-26.38000489105913
 20
12.56027221679688
 30
0.0
  0
VERTEX
  5
31F
  8
0
  6
CONTINUOUS
 10
-26.266195918134532
 20
12.409283987246431
 30
0.0
  0
VERTEX
  5
320
  8
0
  6
CONTINUOUS
 10
-26.19017741316825
 20
12.2962802406546
 30
0.0
  0
VERTEX
  5
321
  8
0
  6
CONTINUOUS
 10
-26.1428333725847
 20
12.21177328758745
 30
0.0
  0
VERTEX
  5
322
  8
0
  6
CONTINUOUS
 10
-26.09397735771001
 20
12.08557627999593
 30
0.0
  0
VERTEX
  5
323
  8
0
  6
CONTINUOUS
 10
-26.080001831054691
 20
11.96026611328125
 30
0.0
  0
VERTEX
  5
324
  8
0
  6
CONTINUOUS
 10
-26.099271713726779
 20
11.859180843865021
 30
0.0
  0
VERTEX
  5
325
  8
0
  6
CONTINUOUS
 10
-26.130279980315851
 20
11.784484872326169
 30
0.0
  0
VERTEX
  5
326
  8
0
  6
CONTINUOUS
 10
-26.19888569253709
 20
11.67529435195422
 30
0.0
  0
VERTEX
  5
327
  8
0
  6
CONTINUOUS
 10
-26.288350676965461
 20
11.57085110619664
 30
0.0
  0
VERTEX
  5
328
  8
0
  6
CONTINUOUS
 10
-26.47913108597389
 20
11.401524194050561
 30
0.0
  0
VERTEX
  5
329
  8
0
  6
CONTINUOUS
 10
-26.680007934570298
 20
11.260269165039061
 30
0.0
  0
SEQEND
  5
32A
  8
0
  6
CONTINUOUS
  0
LINE
  5
1D4
  8
0
  6
CONTINUOUS
 10
-56.080001831054688
 20
11.96026611328125
 30
0.0
 11
-26.080001831054691
 21
11.96026611328125
 31
0.0
  0
LINE
  5
1D5
  8
0
  6
CONTINUOUS
 10
-56.080001831054688
 20
13.1602783203125
 30
0.0
 11
-26.680007934570298
 21
13.1602783203125
 31
0.0
  0
LINE
  5
1D6
  8
0
  6
CONTINUOUS
 10
-2.08001708984375
 20
13.360275268554689
 30
0.0
 11
-2.08001708984375
 21
11.760269165039061
 31
0.0
  0
LINE
  5
1D7
  8
0
  6
CONTINUOUS
 10
-2.08001708984375
 20
13.360275268554689
 30
0.0
 11
8.519989013671875
 21
13.360275268554689
 31
0.0
  0
LINE
  5
1D8
  8
0
  6
CONTINUOUS
 10
-2.08001708984375
 20
11.760269165039061
 30
0.0
 11
6.1199893951416016
 21
11.760269165039061
 31
0.0
  0
LINE
  5
1D9
  8
0
  6
CONTINUOUS
 10
-1.980010986328125
 20
9.3602752685546875
 30
0.0
 11
6.2149810791015616
 21
9.3602752685546875
 31
0.0
  0
LINE
  5
1DA
  8
0
  6
CONTINUOUS
 10
-1.980010986328125
 20
7.7602691650390616
 30
0.0
 11
8.519989013671875
 21
7.7602691650390616
 31
0.0
  0
LINE
  5
1DB
  8
0
  6
CONTINUOUS
 10
-1.980010986328125
 20
9.3602752685546875
 30
0.0
 11
-1.980010986328125
 21
7.7602691650390616
 31
0.0
  0
INSERT
  5
202
  8
0
  6
CONTINUOUS
  2
*X10
 10
0.0
 20
0.0
 30
0.0
  0
INSERT
  5
203
  8
0
  6
CONTINUOUS
  2
*X11
 10
0.0
 20
0.0
 30
0.0
  0
ENDSEC
  0
EOF
