  0
SECTION
  2
HEADER
  9
$ACADVER
  1
AC1009
  9
$INSBASE
 10
0.0
 20
0.0
 30
0.0
  9
$EXTMIN
 10
-116.6358947753904
 20
-14.18928527832032
 30
0.0
  9
$EXTMAX
 10
114.6509704589844
 20
50.0
 30
0.0
  9
$LIMMIN
 10
-134.6436767578125
 20
-148.5
  9
$LIMMAX
 10
210.0
 20
64.002182006835923
  9
$ORTHOMODE
 70
     0
  9
$REGENMODE
 70
     1
  9
$FILLMODE
 70
     1
  9
$QTEXTMODE
 70
     0
  9
$MIRRTEXT
 70
     1
  9
$DRAGMODE
 70
     2
  9
$LTSCALE
 40
1.0
  9
$OSMODE
 70
    37
  9
$ATTMODE
 70
     1
  9
$TEXTSIZE
 40
4.1672001374149312
  9
$TRACEWID
 40
0.05
  9
$TEXTSTYLE
  7
STANDARD
  9
$CLAYER
  8
0
  9
$CELTYPE
  6
BYLAYER
  9
$CECOLOR
 62
   256
  9
$DIMSCALE
 40
1.0
  9
$DIMASZ
 40
4.5700000000000003
  9
$DIMEXO
 40
1.5800000000000001
  9
$DIMDLI
 40
9.6500000000000004
  9
$DIMRND
 40
0.0
  9
$DIMDLE
 40
0.0
  9
$DIMEXE
 40
4.5700000000000003
  9
$DIMTP
 40
0.0
  9
$DIMTM
 40
0.0
  9
$DIMTXT
 40
4.1600000000000001
  9
$DIMCEN
 40
2.279999999999998
  9
$DIMTSZ
 40
0.0
  9
$DIMTOL
 70
     0
  9
$DIMLIM
 70
     0
  9
$DIMTIH
 70
     0
  9
$DIMTOH
 70
     0
  9
$DIMSE1
 70
     0
  9
$DIMSE2
 70
     0
  9
$DIMTAD
 70
     1
  9
$DIMZIN
 70
     8
  9
$DIMBLK
  1

  9
$DIMASO
 70
     1
  9
$DIMSHO
 70
     1
  9
$DIMPOST
  1

  9
$DIMAPOST
  1

  9
$DIMALT
 70
     0
  9
$DIMALTD
 70
     4
  9
$DIMALTF
 40
25.399999999999999
  9
$DIMLFAC
 40
1.0
  9
$DIMTOFL
 70
     1
  9
$DIMTVP
 40
0.0
  9
$DIMTIX
 70
     1
  9
$DIMSOXD
 70
     0
  9
$DIMSAH
 70
     0
  9
$DIMBLK1
  1

  9
$DIMBLK2
  1

  9
$DIMSTYLE
  2
STANDARD
  9
$DIMCLRD
 70
     0
  9
$DIMCLRE
 70
     0
  9
$DIMCLRT
 70
     0
  9
$DIMTFAC
 40
1.0
  9
$DIMGAP
 40
2.279999999999998
  9
$LUNITS
 70
     2
  9
$LUPREC
 70
     6
  9
$SKETCHINC
 40
0.1
  9
$FILLETRAD
 40
0.5
  9
$AUNITS
 70
     0
  9
$AUPREC
 70
     4
  9
$MENU
  1
.
  9
$ELEVATION
 40
0.0
  9
$PELEVATION
 40
0.0
  9
$THICKNESS
 40
0.0
  9
$LIMCHECK
 70
     0
  9
$BLIPMODE
 70
     0
  9
$CHAMFERA
 40
0.0
  9
$CHAMFERB
 40
0.0
  9
$SKPOLY
 70
     0
  9
$TDCREATE
 40
2447893.375
  9
$TDUPDATE
 40
2459165.5264037382
  9
$TDINDWG
 40
0.0012673148
  9
$TDUSRTIMER
 40
0.001266956
  9
$USRTIMER
 70
     1
  9
$ANGBASE
 50
0.0
  9
$ANGDIR
 70
     0
  9
$PDMODE
 70
     0
  9
$PDSIZE
 40
0.0
  9
$PLINEWID
 40
0.0
  9
$COORDS
 70
     0
  9
$SPLFRAME
 70
     0
  9
$SPLINETYPE
 70
     6
  9
$SPLINESEGS
 70
     8
  9
$ATTDIA
 70
     0
  9
$ATTREQ
 70
     1
  9
$HANDLING
 70
 10241
  9
$HANDSEED
  5
203
  9
$SURFTAB1
 70
     6
  9
$SURFTAB2
 70
     6
  9
$SURFTYPE
 70
     6
  9
$SURFU
 70
     6
  9
$SURFV
 70
     6
  9
$UCSNAME
  2

  9
$UCSORG
 10
0.0
 20
0.0
 30
0.0
  9
$UCSXDIR
 10
1.0
 20
0.0
 30
0.0
  9
$UCSYDIR
 10
0.0
 20
1.0
 30
0.0
  9
$PUCSNAME
  2

  9
$PUCSORG
 10
0.0
 20
0.0
 30
0.0
  9
$PUCSXDIR
 10
1.0
 20
0.0
 30
0.0
  9
$PUCSYDIR
 10
0.0
 20
1.0
 30
0.0
  9
$USERI1
 70
     0
  9
$USERI2
 70
     0
  9
$USERI3
 70
     0
  9
$USERI4
 70
     0
  9
$USERI5
 70
     0
  9
$USERR1
 40
0.0
  9
$USERR2
 40
0.0
  9
$USERR3
 40
0.0
  9
$USERR4
 40
0.0
  9
$USERR5
 40
0.0
  9
$WORLDVIEW
 70
     1
  9
$SHADEDGE
 70
     3
  9
$SHADEDIF
 70
    70
  9
$TILEMODE
 70
     1
  9
$MAXACTVP
 70
    64
  9
$PLIMCHECK
 70
     0
  9
$PEXTMIN
 10
-134.6436767578125
 20
-148.5
 30
1.0000000000000000E+020
  9
$PEXTMAX
 10
210.0
 20
64.002182006835923
 30
-1.0000000000000000E+020
  9
$PLIMMIN
 10
0.0
 20
0.0
  9
$PLIMMAX
 10
12.0
 20
9.0
  9
$UNITMODE
 70
     0
  9
$VISRETAIN
 70
     0
  9
$PLINEGEN
 70
     0
  9
$PSLTSCALE
 70
     1
  0
ENDSEC
  0
SECTION
  2
TABLES
  0
TABLE
  2
VPORT
 70
     2
  0
VPORT
  2
*ACTIVE
 70
     0
 10
0.0
 20
0.0
 11
1.0
 21
1.0
 12
-0.9874966998797702
 22
28.653920971897161
 13
0.0
 23
0.0
 14
6.3499999046325666
 24
6.3499999046325666
 15
6.3499999046325666
 25
6.3499999046325666
 16
0.0
 26
0.0
 36
1.0
 17
0.0
 27
0.0
 37
0.0
 40
159.4114014715542
 41
1.458837772397094
 42
50.0
 43
0.0
 44
0.0
 50
0.0
 51
0.0
 71
     0
 72
   100
 73
     1
 74
     1
 75
     0
 76
     0
 77
     0
 78
     0
  0
ENDTAB
  0
TABLE
  2
LTYPE
 70
    36
  0
LTYPE
  2
CONTINUOUS
 70
     0
  3
DXF Default line type
 72
    65
 73
     0
 40
0.0
  0
LTYPE
  2
DASHED
 70
     0
  3
DXF Dashed
 72
    65
 73
     2
 40
0.75
 49
0.5
 49
-0.25
  0
LTYPE
  2
HIDDEN
 70
     0
  3
DXF Hidden
 72
    65
 73
     2
 40
0.375
 49
0.25
 49
-0.125
  0
LTYPE
  2
CENTER
 70
     0
  3
DXF Center
 72
    65
 73
     4
 40
2.0
 49
1.25
 49
-0.25
 49
0.25
 49
-0.25
  0
LTYPE
  2
PHANTOM
 70
     0
  3
DXF Phantom
 72
    65
 73
     6
 40
2.5
 49
1.25
 49
-0.25
 49
0.25
 49
-0.25
 49
0.25
 49
-0.25
  0
LTYPE
  2
DOT
 70
     0
  3
DXF DOT
 72
    65
 73
     2
 40
0.25
 49
0.0
 49
-0.25
  0
LTYPE
  2
DASHDOT
 70
     0
  3
DXF Dash Dot
 72
    65
 73
     4
 40
1.0
 49
0.5
 49
-0.25
 49
0.0
 49
-0.25
  0
LTYPE
  2
BORDER
 70
     0
  3
DXF Border
 72
    65
 73
     6
 40
1.75
 49
0.5
 49
-0.25
 49
0.5
 49
-0.25
 49
0.0
 49
-0.25
  0
LTYPE
  2
DIVIDE
 70
     0
  3
DXF Divide
 72
    65
 73
     6
 40
1.25
 49
0.5
 49
-0.25
 49
0.0
 49
-0.25
 49
0.0
 49
-0.25
  0
LTYPE
  2
C_SOLID_L
 70
     0
  3
CADAM Solid Light
 72
    65
 73
     0
 40
0.0
  0
LTYPE
  2
C_SOLID_M
 70
     0
  3
CADAM Solid Medium
 72
    65
 73
     0
 40
0.0
  0
LTYPE
  2
C_SOLID_H
 70
     0
  3
CADAM Solid Heavy
 72
    65
 73
     0
 40
0.0
  0
LTYPE
  2
C_DASHED_L
 70
     0
  3
CADAM Dashed Light
 72
    65
 73
     2
 40
0.375
 49
0.25
 49
-0.125
  0
LTYPE
  2
C_DASHED_M
 70
     0
  3
CADAM Dashed Medium
 72
    65
 73
     2
 40
0.225
 49
0.075
 49
-0.15
  0
LTYPE
  2
C_CENTER_L
 70
     0
  3
CADAM Center Light
 72
    65
 73
     5
 40
3.4500000000000002
 49
1.5
 49
-0.15
 49
0.15
 49
-0.15
 49
1.5
  0
LTYPE
  2
C_PHANTOM_L
 70
     0
  3
CADAM Phantom Light
 72
    65
 73
     7
 40
3.75
 49
1.5
 49
-0.15
 49
0.15
 49
-0.15
 49
0.15
 49
-0.15
 49
1.5
  0
LTYPE
  2
C_NC
 70
     0
  3
CADAM NC
 72
    65
 73
     0
 40
0.0
  0
LTYPE
  2
DSH1
 70
     0
  3
CADAM Style2 Type 1 Dashed Line
 72
    65
 73
     2
 40
0.1
 49
0.05
 49
-0.05
  0
LTYPE
  2
DSH2
 70
     0
  3
CADAM Style2 Type 2 Dashed Line
 72
    65
 73
     2
 40
0.15
 49
0.09
 49
-0.06
  0
LTYPE
  2
DSH3
 70
     0
  3
CADAM Style2 Type 3 Dashed Line
 72
    65
 73
     2
 40
0.24
 49
0.15
 49
-0.09
  0
LTYPE
  2
DSH4
 70
     0
  3
CADAM Style2 Type 4 Dashed Line
 72
    65
 73
     2
 40
0.48
 49
0.39
 49
-0.09
  0
LTYPE
  2
DSH5
 70
     0
  3
CADAM Style2 Type 5 Dashed Line
 72
    65
 73
     2
 40
0.6600000000000003
 49
0.57
 49
-0.09
  0
LTYPE
  2
DSH6
 70
     0
  3
CADAM Style2 Type 6 Dashed Line
 72
    65
 73
     2
 40
1.139999999999999
 49
1.05
 49
-0.09
  0
LTYPE
  2
PL1
 70
     0
  3
Style 2 Type 1 Phantom Line
 72
    65
 73
     6
 40
1.2399999999999971
 49
1.0
 49
-0.06
 49
0.03
 49
-0.06
 49
0.03
 49
-0.06
  0
LTYPE
  2
PL2
 70
     0
  3
Style 2 Type 2 Phantom Line
 72
    65
 73
     6
 40
1.409999999999999
 49
1.05
 49
-0.06
 49
0.09
 49
-0.06
 49
0.09
 49
-0.06
  0
LTYPE
  2
PL3
 70
     0
  3
Style 2 Type 3 Phantom Line
 72
    65
 73
     6
 40
3.0800000000000001
 49
2.4900000000000002
 49
-0.09
 49
0.16
 49
-0.09
 49
0.16
 49
-0.09
  0
LTYPE
  2
CL1
 70
     0
  3
CADAM Style 2 Type 1 Center Line
 72
    65
 73
     4
 40
0.7800000000000003
 49
0.5400000000000002
 49
-0.06
 49
0.12
 49
-0.06
  0
LTYPE
  2
CL2
 70
     0
  3
CADAM Style 2 Type 2 Center Line
 72
    65
 73
     4
 40
1.179999999999999
 49
1.0
 49
-0.06
 49
0.06
 49
-0.06
  0
LTYPE
  2
CL3
 70
     0
  3
CADAM Style 2 Type 3 Center Line
 72
    65
 73
     4
 40
1.26
 49
1.05
 49
-0.06
 49
0.09
 49
-0.06
  0
LTYPE
  2
CL4
 70
     0
  3
CADAM Style 2 Type 4 Center Line
 72
    65
 73
     4
 40
1.98
 49
1.74
 49
-0.06
 49
0.12
 49
-0.06
  0
LTYPE
  2
CL5
 70
     0
  3
CADAM Style 2 Type 5 Center Line
 72
    65
 73
     4
 40
3.9199999999999982
 49
3.6099999999999981
 49
-0.08
 49
0.15
 49
-0.08
  0
LTYPE
  2
SBK1
 70
     0
  3
CADAM Style 2 Type 1 SetBack Line
 72
    65
 73
     8
 40
2.3700000000000001
 49
1.74
 49
-0.09
 49
0.09
 49
-0.09
 49
0.09
 49
-0.09
 49
0.09
 49
-0.09
  0
LTYPE
  2
SBK2
 70
     0
  3
CADAM Style 2 Type 2 SetBack Line
 72
    65
 73
     8
 40
3.3300000000000001
 49
2.4900000000000002
 49
-0.09
 49
0.16
 49
-0.09
 49
0.16
 49
-0.09
 49
0.16
 49
-0.09
  0
LTYPE
  2
STCH
 70
     0
  3
CADAM Style2 Stitch Line
 72
    65
 73
     2
 40
0.12
 49
0.03
 49
-0.09
  0
LTYPE
  2
MTCH
 70
     0
  3
CADAM Style2 Match Line
 72
    65
 73
     6
 40
2.8900000000000001
 49
2.5899999999999981
 49
-0.06
 49
0.06
 49
-0.06
 49
0.06
 49
-0.06
  0
LTYPE
  2
SLD
 70
     0
  3
CADAM Solid_EXT2
 72
    65
 73
     0
 40
0.0
  0
ENDTAB
  0
TABLE
  2
LAYER
 70
     1
  0
LAYER
  2
0
 70
     0
 62
     7
  6
C_SOLID_M
  0
ENDTAB
  0
TABLE
  2
STYLE
 70
     1
  0
STYLE
  2
STANDARD
 70
     0
 40
4.1672001374149312
 41
1.0
 50
0.0
 71
     0
 42
4.1672001374149312
  3
monotxt
  4
BIGFONT
  0
ENDTAB
  0
TABLE
  2
VIEW
 70
     0
  0
ENDTAB
  0
TABLE
  2
UCS
 70
     2
  0
UCS
  2
MO_001_VIEW_PV_P
 70
     0
 10
0.0
 20
0.0
 30
0.0
 11
1.0
 21
0.0
 31
0.0
 12
0.0
 22
1.0
 32
0.0
  0
UCS
  2
MO_001_VIEW_ZZ_P
 70
     0
 10
210.0
 20
-148.5
 30
0.0
 11
1.0
 21
0.0
 31
0.0
 12
0.0
 22
1.0
 32
0.0
  0
ENDTAB
  0
TABLE
  2
APPID
 70
     3
  0
APPID
  2
ACAD
 70
     0
  0
APPID
  2
PDELIB
 70
     0
  0
APPID
  2
ACAD_MLEADERVER
 70
     0
  0
ENDTAB
  0
TABLE
  2
DIMSTYLE
 70
     1
  0
DIMSTYLE
  2
STANDARD
 70
     0
  3

  4

  5

  6

  7

 40
1.0
 41
4.5700000000000003
 42
1.5800000000000001
 43
9.6500000000000004
 44
4.5700000000000003
 45
0.0
 46
0.0
 47
0.0
 48
0.0
140
4.1600000000000001
141
2.279999999999998
142
0.0
143
25.399999999999999
144
1.0
145
0.0
146
1.0
147
2.279999999999998
 71
     0
 72
     0
 73
     0
 74
     0
 75
     0
 76
     0
 77
     1
 78
     8
170
     0
171
     4
172
     1
173
     0
174
     1
175
     0
176
     0
177
     0
178
     0
  0
ENDTAB
  0
ENDSEC
  0
SECTION
  2
BLOCKS
  0
BLOCK
  8
0
  2
$MODEL_SPACE
 70
     0
 10
0.0
 20
0.0
 30
0.0
  3
$MODEL_SPACE
  1

  0
ENDBLK
  5
21
  8
0
  0
BLOCK
 67
     1
  8
0
  2
$PAPER_SPACE
 70
     0
 10
0.0
 20
0.0
 30
0.0
  3
$PAPER_SPACE
  1

  0
ENDBLK
  5
1D
 67
     1
  8
0
  0
BLOCK
  8
0
  2
*D0
 70
     1
 10
0.0
 20
0.0
 30
0.0
  3
*D0
  1

  0
LINE
  5
151
  8
0
 62
     0
 10
-33.18000793457027
 20
55.678237915039077
 30
0.0
 11
33.100006103515639
 21
55.678237915039041
 31
0.0
  0
INSERT
  5
152
  8
0
  6
C_SOLID_L
 62
     0
  2
CCD_OARW
 10
-33.18000793457027
 20
55.678237915039077
 30
0.0
  0
INSERT
  5
153
  8
0
  6
C_SOLID_L
 62
     0
  2
CCD_OARWRT
 10
33.100006103515639
 20
55.678237915039041
 30
0.0
 50
179.9999999999998
  0
LINE
  5
154
  8
0
 62
     0
 10
-33.180007934570298
 20
13.62862789630892
 30
0.0
 11
-33.18000793457027
 21
57.964248657226577
 31
0.0
  0
LINE
  5
155
  8
0
 62
     0
 10
33.100006103515639
 20
14.48276913166044
 30
0.0
 11
33.100006103515639
 21
57.964248657226541
 31
0.0
  0
TEXT
  5
156
  8
0
 10
-14.397596716880781
 20
58.71901218509673
 30
0.0
 40
4.1671876907348633
  1
(66.3)
  0
ENDBLK
  5
98
  8
0
  0
BLOCK
  8
0
  2
CCD_OARW
 70
     0
 10
0.0
 20
0.0
 30
0.0
  3
CCD_OARW
  1

  0
POLYLINE
  5
157
  8
0
 62
     0
 66
     1
 10
0.0
 20
0.0
 30
0.0
  0
VERTEX
  5
1E8
  8
0
 62
     0
 10
3.3182601204778792
 20
0.5835116150723609
 30
0.0
  0
VERTEX
  5
1E9
  8
0
 62
     0
 10
0.5079999923706055
 20
0.0
 30
0.0
  0
VERTEX
  5
1EA
  8
0
 62
     0
 10
3.3182601204778792
 20
-0.5835116150723609
 30
0.0
  0
SEQEND
  5
1EB
  8
0
 62
     0
  0
ENDBLK
  5
9B
  8
0
  0
BLOCK
  8
0
  2
CCD_OARWRT
 70
     0
 10
0.0
 20
0.0
 30
0.0
  3
CCD_OARWRT
  1

  0
POLYLINE
  5
15C
  8
0
 62
     0
 66
     1
 10
0.0
 20
0.0
 30
0.0
  0
VERTEX
  5
1EC
  8
0
 62
     0
 10
3.3182601204778792
 20
0.5835116150723609
 30
0.0
  0
VERTEX
  5
1ED
  8
0
 62
     0
 10
0.5079999923706055
 20
0.0
 30
0.0
  0
VERTEX
  5
1EE
  8
0
 62
     0
 10
3.3182601204778792
 20
-0.5835116150723609
 30
0.0
  0
SEQEND
  5
1EF
  8
0
 62
     0
  0
ENDBLK
  5
9E
  8
0
  0
BLOCK
  8
0
  2
*D3
 70
     1
 10
0.0
 20
0.0
 30
0.0
  3
*D3
  1

  0
LINE
  5
161
  8
0
 62
     0
 10
33.100006103515639
 20
43.068344116210923
 30
0.0
 11
11.099990844726589
 21
43.06834411621093
 31
0.0
  0
INSERT
  5
162
  8
0
  6
C_SOLID_L
 62
     0
  2
CCD_OARW
 10
33.100006103515639
 20
43.068344116210923
 30
0.0
 50
179.9999999999998
  0
INSERT
  5
163
  8
0
  6
C_SOLID_L
 62
     0
  2
CCD_OARWRT
 10
11.099990844726589
 20
43.06834411621093
 30
0.0
  0
LINE
  5
164
  8
0
 62
     0
 10
33.100006103515639
 20
14.48276913166044
 30
0.0
 11
33.100006103515639
 21
45.354354858398402
 31
0.0
  0
LINE
  5
165
  8
0
 62
     0
 10
11.09999084472657
 20
32.28277218341826
 30
0.0
 11
11.099990844726589
 21
45.35435485839843
 31
0.0
  0
TEXT
  5
166
  8
0
 10
15.322188019752501
 20
46.109118386268612
 30
0.0
 40
4.1671876907348633
  1
(22)
  0
ENDBLK
  5
A1
  8
0
  0
BLOCK
  8
0
  2
*D4
 70
     1
 10
0.0
 20
0.0
 30
0.0
  3
*D4
  1

  0
LINE
  5
167
  8
0
 62
     0
 10
46.136558532714851
 20
12.560272216796831
 30
0.0
 11
46.136558532714851
 21
8.5602722167968448
 31
0.0
  0
LINE
  5
168
  8
0
 62
     0
 10
46.136558532714851
 20
12.560272216796831
 30
0.0
 11
46.136558532714858
 21
18.910272121429411
 31
0.0
  0
LINE
  5
169
  8
0
 62
     0
 10
46.136558532714851
 20
8.5602722167968448
 30
0.0
 11
46.136558532714822
 21
2.2102723121642751
 31
0.0
  0
INSERT
  5
16A
  8
0
  6
C_SOLID_L
 62
     0
  2
CCD_IARW
 10
46.136558532714851
 20
12.560272216796831
 30
0.0
 50
269.99999999999977
  0
INSERT
  5
16B
  8
0
  6
C_SOLID_L
 62
     0
  2
CCD_IARWRT
 10
46.136558532714851
 20
8.5602722167968448
 30
0.0
 50
89.999999999999943
  0
LINE
  5
16C
  8
0
 62
     0
 10
35.022503018379211
 20
12.560272216796831
 30
0.0
 11
48.422557830810533
 21
12.560272216796831
 31
0.0
  0
LINE
  5
16D
  8
0
 62
     0
 10
35.022503018379211
 20
8.5602722167968501
 30
0.0
 11
48.422557830810533
 21
8.560272216796843
 31
0.0
  0
INSERT
  5
16E
  8
0
  2
*U12
 10
0.0
 20
0.0
 30
0.0
  0
LINE
  5
16F
  8
0
 62
     0
 10
46.136558532714858
 20
36.785823822021463
 30
0.0
 11
46.136558532714851
 21
12.560272216796831
 31
0.0
  0
ENDBLK
  5
A4
  8
0
  0
BLOCK
  8
0
  2
CCD_IARW
 70
     0
 10
0.0
 20
0.0
 30
0.0
  3
CCD_IARW
  1

  0
POLYLINE
  5
170
  8
0
 62
     0
 66
     1
 10
0.0
 20
0.0
 30
0.0
  0
VERTEX
  5
1F6
  8
0
 62
     0
 10
-3.318260120477881
 20
-0.5835116150723501
 30
0.0
  0
VERTEX
  5
1F7
  8
0
 62
     0
 10
-0.5079999923706055
 20
0.0000000000000016
 30
0.0
  0
VERTEX
  5
1F8
  8
0
 62
     0
 10
-3.3182601204778761
 20
0.5835116150723715
 30
0.0
  0
SEQEND
  5
1F9
  8
0
 62
     0
  0
ENDBLK
  5
A7
  8
0
  0
BLOCK
  8
0
  2
CCD_IARWRT
 70
     0
 10
0.0
 20
0.0
 30
0.0
  3
CCD_IARWRT
  1

  0
POLYLINE
  5
175
  8
0
 62
     0
 66
     1
 10
0.0
 20
0.0
 30
0.0
  0
VERTEX
  5
1FA
  8
0
 62
     0
 10
-3.318260120477881
 20
-0.5835116150723501
 30
0.0
  0
VERTEX
  5
1FB
  8
0
 62
     0
 10
-0.5079999923706055
 20
0.0000000000000016
 30
0.0
  0
VERTEX
  5
1FC
  8
0
 62
     0
 10
-3.3182601204778761
 20
0.5835116150723715
 30
0.0
  0
SEQEND
  5
1FD
  8
0
 62
     0
  0
ENDBLK
  5
AA
  8
0
  0
BLOCK
  8
0
  2
*D7
 70
     1
 10
0.0
 20
0.0
 30
0.0
  3
*D7
  1

  0
LINE
  5
17A
  8
0
 62
     0
 10
11.099990844726561
 20
42.9559326171875
 30
0.0
 11
-19.90000915527343
 21
42.9559326171875
 31
0.0
  0
INSERT
  5
17B
  8
0
  6
C_SOLID_L
 62
     0
  2
CCD_OARW
 10
11.099990844726561
 20
42.9559326171875
 30
0.0
 50
179.9999999999998
  0
INSERT
  5
17C
  8
0
  6
C_SOLID_L
 62
     0
  2
CCD_OARWRT
 10
-19.90000915527343
 20
42.9559326171875
 30
0.0
  0
LINE
  5
17D
  8
0
 62
     0
 10
11.09999084472657
 20
32.28277218341826
 30
0.0
 11
11.09999084472657
 21
45.241928100585909
 31
0.0
  0
LINE
  5
17E
  8
0
 62
     0
 10
-19.90000915527343
 20
32.28277218341826
 30
0.0
 11
-19.90000915527343
 21
45.241928100585909
 31
0.0
  0
TEXT
  5
17F
  8
0
 10
-8.1452630758285451
 20
45.996706887245168
 30
0.0
 40
4.1671876907348633
  1
31
  0
ENDBLK
  5
AD
  8
0
  0
BLOCK
  8
0
  2
*D8
 70
     1
 10
0.0
 20
0.0
 30
0.0
  3
*D8
  1

  0
TEXT
  5
180
  8
0
 10
-57.79042649269104
 20
45.996706887245168
 30
0.0
 40
4.1671876907348633
  1
(13.3)
  0
LINE
  5
181
  8
0
 62
     0
 10
-19.900009155273441
 20
42.9559326171875
 30
0.0
 11
-33.180007934570298
 21
42.9559326171875
 31
0.0
  0
INSERT
  5
182
  8
0
  6
C_SOLID_L
 62
     0
  2
CCD_OARW
 10
-19.900009155273441
 20
42.9559326171875
 30
0.0
 50
179.9999999999998
  0
INSERT
  5
183
  8
0
  6
C_SOLID_L
 62
     0
  2
CCD_OARWRT
 10
-33.180007934570298
 20
42.9559326171875
 30
0.0
  0
LINE
  5
184
  8
0
 62
     0
 10
-19.90000915527343
 20
32.28277218341826
 30
0.0
 11
-19.900009155273441
 21
45.241928100585909
 31
0.0
  0
LINE
  5
185
  8
0
 62
     0
 10
-33.180007934570298
 20
12.78277218341826
 30
0.0
 11
-33.180007934570298
 21
45.241928100585909
 31
0.0
  0
LINE
  5
186
  8
0
 62
     0
 10
-33.180007934570298
 20
42.9559326171875
 30
0.0
 11
-59.1298828125
 21
42.9559326171875
 31
0.0
  0
ENDBLK
  5
B0
  8
0
  0
BLOCK
  8
0
  2
*D9
 70
     1
 10
0.0
 20
0.0
 30
0.0
  3
*D9
  1

  0
LINE
  5
187
  8
0
 62
     0
 10
127.17852783203119
 20
24.560272216796871
 30
0.0
 11
127.17852783203119
 21
-3.439727783203133
 31
0.0
  0
INSERT
  5
188
  8
0
  6
C_SOLID_L
 62
     0
  2
CCD_OARW
 10
127.17852783203119
 20
24.560272216796871
 30
0.0
 50
269.99999999999977
  0
INSERT
  5
189
  8
0
  6
C_SOLID_L
 62
     0
  2
CCD_OARWRT
 10
127.17852783203119
 20
-3.439727783203133
 30
0.0
 50
89.999999999999943
  0
LINE
  5
18A
  8
0
 62
     0
 10
95.722499966621399
 20
24.560272216796871
 30
0.0
 11
129.46452331542969
 21
24.560272216796871
 31
0.0
  0
LINE
  5
18B
  8
0
 62
     0
 10
95.722499966621399
 20
-3.4397277832031312
 30
0.0
 11
129.46452331542969
 21
-3.439727783203133
 31
0.0
  0
TEXT
  5
18C
  8
0
 10
124.1377535619736
 20
6.8198047876358068
 30
0.0
 40
4.1671876907348633
  1
28
 50
90.0
  0
ENDBLK
  5
B3
  8
0
  0
BLOCK
  8
0
  2
*D10
 70
     1
 10
0.0
 20
0.0
 30
0.0
  3
*D10
  1

  0
LINE
  5
18D
  8
0
 62
     0
 10
89.948348457800421
 20
23.490681294123071
 30
0.0
 11
92.051649506079215
 21
25.629869047323609
 31
0.0
  0
LINE
  5
18E
  8
0
 62
     0
 10
92.051649506079215
 20
25.629869047323609
 30
0.0
 11
96.503636771071797
 21
30.157816505187672
 31
0.0
  0
INSERT
  5
18F
  8
0
  6
C_SOLID_L
 62
     0
  2
CCD_IARWRT
 10
92.051649506079215
 20
25.629869047323609
 30
0.0
 50
225.48464658124141
  0
LINE
  5
190
  8
0
 62
     0
 10
92.051649506079215
 20
25.629869047323609
 30
0.0
 11
104.8301276765915
 21
38.626374720759927
 31
0.0
  0
ENDBLK
  5
B6
  8
0
  0
BLOCK
  8
0
  2
*D11
 70
     1
 10
0.0
 20
0.0
 30
0.0
  3
*D11
  1

  0
LINE
  5
191
  8
0
 62
     0
 10
-44.074256896972649
 20
30.060272216796871
 30
0.0
 11
-44.074256896972649
 21
-8.9397277832031214
 31
0.0
  0
INSERT
  5
192
  8
0
  6
C_SOLID_L
 62
     0
  2
CCD_OARW
 10
-44.074256896972649
 20
30.060272216796871
 30
0.0
 50
269.99999999999977
  0
INSERT
  5
193
  8
0
  6
C_SOLID_L
 62
     0
  2
CCD_OARWRT
 10
-44.074256896972649
 20
-8.9397277832031214
 30
0.0
 50
89.999999999999943
  0
LINE
  5
194
  8
0
 62
     0
 10
-22.122509121894819
 20
30.060272216796871
 30
0.0
 11
-46.360256195068359
 21
30.060272216796871
 31
0.0
  0
LINE
  5
195
  8
0
 62
     0
 10
-22.122509121894819
 20
-8.9397277832031161
 30
0.0
 11
-46.360256195068359
 21
-8.9397277832031214
 31
0.0
  0
INSERT
  5
196
  8
0
  2
*U13
 10
0.0
 20
0.0
 30
0.0
  0
ENDBLK
  5
B9
  8
0
  0
BLOCK
  8
0
  2
*U12
 70
     1
 10
0.0
 20
0.0
 30
0.0
  3
*U12
  1

  0
TEXT
  5
1F1
  8
0
 10
43.095784262657169
 20
19.96824514865876
 30
0.0
 40
4.1671876907348633
  1
(
 50
90.0
  0
TEXT
  5
1F2
  8
0
 10
43.095784262657169
 20
24.135432839393619
 30
0.0
 40
4.1671876907348633
  1
\U+2205
 50
90.0
  0
TEXT
  5
1F3
  8
0
 10
43.095784262657169
 20
28.302620530128479
 30
0.0
 40
4.1671876907348633
  1
4)
 50
90.0
  0
ENDBLK
  5
1F5
  8
0
  0
BLOCK
  8
0
  2
*U13
 70
     1
 10
0.0
 20
0.0
 30
0.0
  3
*U13
  1

  0
TEXT
  5
1FF
  8
0
 10
-47.115031167030317
 20
4.3412219285965001
 30
0.0
 40
4.1671876907348633
  1
\U+2205
 50
90.0
  0
TEXT
  5
200
  8
0
 10
-47.115031167030317
 20
8.5084096193313634
 30
0.0
 40
4.1671876907348633
  1
40
 50
90.0
  0
ENDBLK
  5
202
  8
0
  0
ENDSEC
  0
SECTION
  2
ENTITIES
  0
POINT
  5
BA
  8
0
  6
CONTINUOUS
 10
0.0
 20
0.0
 30
0.0
  0
POINT
  5
BB
  8
0
  6
CONTINUOUS
 10
0.0
 20
50.0
 30
0.0
  0
POINT
  5
BC
  8
0
  6
CONTINUOUS
 10
-97.147117614746094
 20
5.2569732666015607
 30
0.0
  0
POINT
  5
BD
  8
0
  6
CONTINUOUS
 10
-95.647117614746094
 20
5.2569732666015607
 30
0.0
  0
POINT
  5
BE
  8
0
  6
CONTINUOUS
 10
-95.647117614746094
 20
5.2569732666015607
 30
0.0
  0
POINT
  5
BF
  8
0
  6
CONTINUOUS
 10
-97.147117614746094
 20
5.2569732666015607
 30
0.0
  0
POINT
  5
C0
  8
0
  6
CONTINUOUS
 10
-85.040512084960923
 20
5.2569732666015607
 30
0.0
  0
POINT
  5
C1
  8
0
  6
CONTINUOUS
 10
-85.040512084960923
 20
5.2569732666015607
 30
0.0
  0
LINE
  5
C2
  8
0
  6
CONTINUOUS
 10
-103.64381408691401
 20
4.5602722167968857
 30
0.0
 11
-103.64381408691401
 21
0.5098876953125127
 31
0.0
  0
ARC
  5
C3
  8
0
  6
CONTINUOUS
 10
-91.843811035156236
 20
10.56027221679687
 30
0.0
 40
15.5
 50
220.42191510301461
 51
264.44656192668111
  0
LINE
  5
C4
  8
0
  6
CONTINUOUS
 10
-100.64381408691401
 20
9.0602722167968874
 30
0.0
 11
-100.64381408691401
 21
5.5602722167968857
 31
0.0
  0
ARC
  5
C5
  8
0
  6
CONTINUOUS
 10
-101.64381408691401
 20
5.560272216796875
 30
0.0
 40
1.0
 50
269.99999749552182
 51
0.000010017912262
  0
ARC
  5
C6
  8
0
  6
CONTINUOUS
 10
-91.843811035156236
 20
10.56027221679687
 30
0.0
 40
15.5
 50
275.55343306436242
 51
354.44657424955619
  0
ARC
  5
C7
  8
0
  6
CONTINUOUS
 10
-101.64381408691401
 20
15.56027221679688
 30
0.0
 40
1.0
 50
0.000010017912262
 51
89.999988844099846
  0
LINE
  5
C8
  8
0
  6
CONTINUOUS
 10
-105.64381408691411
 20
5.0602722167968857
 30
0.0
 11
-102.14381408691411
 21
5.0602722167968857
 31
0.0
  0
ARC
  5
C9
  8
0
  6
CONTINUOUS
 10
-102.14381408691411
 20
6.060272216796875
 30
0.0
 40
1.0
 50
269.99999749552182
 51
0.000010017912262
  0
ARC
  5
CA
  8
0
  6
CONTINUOUS
 10
-102.14381408691411
 20
15.06027221679688
 30
0.0
 40
1.0
 50
0.000010017912262
 51
89.999988844099846
  0
LINE
  5
CB
  8
0
  6
CONTINUOUS
 10
-102.14381408691411
 20
16.060272216796889
 30
0.0
 11
-105.64381408691411
 21
16.060272216796889
 31
0.0
  0
LINE
  5
CC
  8
0
  6
CONTINUOUS
 10
-105.64381408691411
 20
16.560272216796889
 30
0.0
 11
-106.9499053955077
 21
16.560272216796889
 31
0.0
  0
ARC
  5
CD
  8
0
  6
CONTINUOUS
 10
-91.843811035156236
 20
10.56027221679687
 30
0.0
 40
16.254045486450192
 50
201.6625273400077
 51
158.3374863203706
  0
LINE
  5
CE
  8
0
  6
CONTINUOUS
 10
-106.9499053955077
 20
4.5602722167968857
 30
0.0
 11
-105.64381408691411
 21
4.5602722167968857
 31
0.0
  0
ARC
  5
CF
  8
0
  6
CONTINUOUS
 10
-91.843811035156236
 20
10.56027221679687
 30
0.0
 40
15.5
 50
5.5534441065770679
 51
84.446553275259205
  0
LINE
  5
D0
  8
0
  6
CONTINUOUS
 10
-101.64381408691401
 20
4.5602722167968857
 30
0.0
 11
-103.64381408691401
 21
4.5602722167968857
 31
0.0
  0
CIRCLE
  5
D1
  8
0
  6
CONTINUOUS
 10
-91.843811035156236
 20
10.56027221679687
 30
0.0
 40
1.25
  0
ARC
  5
D2
  8
0
  6
CONTINUOUS
 10
-91.843811035156236
 20
10.56027221679687
 30
0.0
 40
15.5
 50
95.553444903507938
 51
139.5780848969853
  0
LINE
  5
D3
  8
0
  6
CONTINUOUS
 10
-103.64381408691401
 20
20.610641479492191
 30
0.0
 11
-103.64381408691401
 21
16.560272216796889
 31
0.0
  0
LINE
  5
D4
  8
0
  6
CONTINUOUS
 10
-103.64381408691401
 20
16.560272216796889
 30
0.0
 11
-101.64381408691401
 21
16.560272216796889
 31
0.0
  0
LINE
  5
D5
  8
0
  6
CONTINUOUS
 10
-100.64381408691401
 20
15.560272216796889
 30
0.0
 11
-100.64381408691401
 21
12.060272216796889
 31
0.0
  0
LINE
  5
D6
  8
0
  6
CONTINUOUS
 10
-105.64381408691411
 20
4.5602722167968857
 30
0.0
 11
-105.64381408691411
 21
5.0602722167968857
 31
0.0
  0
LINE
  5
D7
  8
0
  6
CONTINUOUS
 10
-105.64381408691411
 20
16.060272216796889
 30
0.0
 11
-105.64381408691411
 21
16.560272216796889
 31
0.0
  0
ARC
  5
D8
  8
0
  6
CONTINUOUS
 10
-91.843811035156236
 20
10.56027221679687
 30
0.0
 40
16.79999923706055
 50
200.92483958888951
 51
159.0752013922453
  0
LINE
  5
D9
  8
0
  6
CONTINUOUS
 10
-107.5358505249023
 20
4.5602722167968857
 30
0.0
 11
-106.9499053955077
 21
4.5602722167968857
 31
0.0
  0
LINE
  5
DA
  8
0
  6
CONTINUOUS
 10
-106.9499053955077
 20
16.560272216796889
 30
0.0
 11
-107.5358505249023
 21
16.560272216796889
 31
0.0
  0
LINE
  5
DB
  8
0
  6
CONTINUOUS
 10
-104.64381408691401
 20
16.060272216796889
 30
0.0
 11
-104.64381408691401
 21
5.0602722167968857
 31
0.0
  0
CIRCLE
  5
DC
  8
0
  6
CONTINUOUS
 10
-103.2438125610352
 20
8.560272216796875
 30
0.0
 40
0.5
  0
ARC
  5
DD
  8
0
  6
CONTINUOUS
 10
-103.2438125610352
 20
12.56027221679688
 30
0.0
 40
0.5
 50
180.00000865142201
 51
152.22244527721489
  0
CIRCLE
  5
DE
  8
0
  6
CONTINUOUS
 10
-97.147117614746094
 20
15.86357116699218
 30
0.0
 40
1.5
  0
CIRCLE
  5
DF
  8
0
  6
CONTINUOUS
 10
-86.540512084960937
 20
5.2569732666015607
 30
0.0
 40
1.5
  0
CIRCLE
  5
E0
  8
0
  6
CONTINUOUS
 10
-97.147117614746094
 20
5.2569732666015607
 30
0.0
 40
1.5
  0
CIRCLE
  5
E1
  8
0
  6
CONTINUOUS
 10
-86.540512084960937
 20
15.86357116699218
 30
0.0
 40
1.5
  0
ARC
  5
E2
  8
0
  6
CONTINUOUS
 10
-91.843811035156236
 20
10.56027221679687
 30
0.0
 40
16.79999923706055
 50
159.0751740714885
 51
200.924835946424
  0
CIRCLE
  5
E3
  8
0
  6
CONTINUOUS
 10
-97.147117614746094
 20
5.2569732666015607
 30
0.0
 40
1.0
  0
LINE
  5
E4
  8
0
  6
C_CENTER_L
 10
-91.843811035156236
 20
-14.158843994140611
 30
0.0
 11
-91.843811035156236
 21
35.920745849609389
 31
0.0
  0
LINE
  5
E5
  8
0
  6
C_CENTER_L
 10
-68.310066223144531
 20
10.56027221679687
 30
0.0
 11
-116.6358947753904
 21
10.560272216796889
 31
0.0
  0
ARC
  5
E6
  8
0
  6
CONTINUOUS
 10
-91.843811035156236
 20
10.56027221679687
 30
0.0
 40
16.69999885559082
 50
201.0560475228456
 51
159.0752013922453
  0
LINE
  5
E7
  8
0
  6
CONTINUOUS
 10
-93.343811035156236
 20
13.682769775390639
 30
0.0
 11
-93.343811035156236
 21
25.987518310546889
 31
0.0
  0
LINE
  5
E8
  8
0
  6
CONTINUOUS
 10
-90.343811035156236
 20
25.987518310546889
 30
0.0
 11
-90.343811035156236
 21
13.682769775390639
 31
0.0
  0
LINE
  5
E9
  8
0
  6
CONTINUOUS
 10
-88.7213134765625
 20
12.060272216796889
 30
0.0
 11
-76.41656494140625
 21
12.06027221679688
 31
0.0
  0
LINE
  5
EA
  8
0
  6
CONTINUOUS
 10
-76.41656494140625
 20
9.0602722167968839
 30
0.0
 11
-88.721305847167969
 21
9.0602722167968874
 31
0.0
  0
LINE
  5
EB
  8
0
  6
CONTINUOUS
 10
-90.343811035156236
 20
7.4377746582031357
 30
0.0
 11
-90.343811035156236
 21
-4.8669891357421751
 31
0.0
  0
LINE
  5
EC
  8
0
  6
CONTINUOUS
 10
-93.343811035156236
 20
-4.8669891357421751
 30
0.0
 11
-93.343811035156236
 21
7.4377746582031383
 31
0.0
  0
LINE
  5
ED
  8
0
  6
CONTINUOUS
 10
-94.966316223144517
 20
9.0602722167968874
 30
0.0
 11
-100.64381408691401
 21
9.0602722167968874
 31
0.0
  0
LINE
  5
EE
  8
0
  6
CONTINUOUS
 10
-100.64381408691401
 20
12.060272216796889
 30
0.0
 11
-94.966308593750014
 21
12.060272216796889
 31
0.0
  0
ARC
  5
EF
  8
0
  6
CONTINUOUS
 10
-91.843811035156236
 20
10.56027221679687
 30
0.0
 40
3.0
 50
308.68217621833662
 51
321.31797154134682
  0
ARC
  5
F0
  8
0
  6
CONTINUOUS
 10
-91.843811035156236
 20
10.56027221679687
 30
0.0
 40
3.0
 50
38.682212873760683
 51
51.31781695147415
  0
ARC
  5
F1
  8
0
  6
CONTINUOUS
 10
-91.843811035156236
 20
10.56027221679687
 30
0.0
 40
3.0
 50
128.6821846423876
 51
141.31778872010079
  0
ARC
  5
F2
  8
0
  6
CONTINUOUS
 10
-91.843811035156236
 20
10.56027221679687
 30
0.0
 40
3.0
 50
218.6820336949805
 51
231.31782901799059
  0
ARC
  5
F3
  8
0
  6
CONTINUOUS
 10
-89.343811035156236
 20
7.437774658203125
 30
0.0
 40
1.0
 50
128.6821983027659
 51
180.00000500895629
  0
ARC
  5
F4
  8
0
  6
CONTINUOUS
 10
-88.721305847167969
 20
8.060272216796875
 30
0.0
 40
1.0
 50
89.999995674288996
 51
141.31788434274941
  0
ARC
  5
F5
  8
0
  6
CONTINUOUS
 10
-94.343811035156236
 20
7.437774658203125
 30
0.0
 40
1.0
 50
0.0000086514222091
 51
51.317803291095821
  0
ARC
  5
F6
  8
0
  6
CONTINUOUS
 10
-94.966316223144517
 20
8.060272216796875
 30
0.0
 40
1.0
 50
38.682117251112317
 51
89.999995674288996
  0
ARC
  5
F7
  8
0
  6
CONTINUOUS
 10
-94.966308593750014
 20
13.06027221679688
 30
0.0
 40
1.0
 50
269.99999749552182
 51
321.31780761680682
  0
ARC
  5
F8
  8
0
  6
CONTINUOUS
 10
-94.343811035156236
 20
13.682769775390611
 30
0.0
 40
1.0
 50
308.68217621833662
 51
0.000010017912262
  0
ARC
  5
F9
  8
0
  6
CONTINUOUS
 10
-89.343811035156236
 20
13.682769775390611
 30
0.0
 40
1.0
 50
180.00000865142201
 51
231.31782901799059
  0
ARC
  5
FA
  8
0
  6
CONTINUOUS
 10
-88.7213134765625
 20
13.06027221679688
 30
0.0
 40
1.0
 50
218.68218395914229
 51
269.99999749552182
  0
LINE
  5
FB
  8
0
  6
CONTINUOUS
 10
-101.14381408691411
 20
6.0602722167968883
 30
0.0
 11
-101.14381408691411
 21
15.060272216796889
 31
0.0
  0
LINE
  5
FC
  8
0
  6
CONTINUOUS
 10
-105.64381408691411
 20
5.0602722167968857
 30
0.0
 11
-105.64381408691411
 21
16.560272216796889
 31
0.0
  0
LINE
  5
FD
  8
0
  6
C_CENTER_L
 10
68.563888549804688
 20
10.56027221679687
 30
0.0
 11
114.6509704589844
 21
10.56027221679687
 31
0.0
  0
LINE
  5
FE
  8
0
  6
C_CENTER_L
 10
91.0
 20
-14.18928527832032
 30
0.0
 11
91.0
 21
34.635650634765611
 31
0.0
  0
CIRCLE
  5
FF
  8
0
  6
CONTINUOUS
 10
91.0
 20
10.56027221679687
 30
0.0
 40
17.700000762939439
  0
CIRCLE
  5
100
  8
0
  6
CONTINUOUS
 10
91.0
 20
-3.439727783203125
 30
0.0
 40
1.5
  0
CIRCLE
  5
101
  8
0
  6
CONTINUOUS
 10
91.0
 20
24.560272216796879
 30
0.0
 40
1.5
  0
ARC
  5
102
  8
0
  6
C_DASHED_L
 10
91.0
 20
24.560272216796879
 30
0.0
 40
1.299999952316284
 50
74.555913432514657
 51
344.74456394063583
  0
ARC
  5
103
  8
0
  6
C_DASHED_L
 10
91.0
 20
-3.439727783203125
 30
0.0
 40
1.299999952316284
 50
78.533767793805907
 51
342.36459818472309
  0
LINE
  5
104
  8
0
  6
C_CENTER_L
 10
88.499999999999986
 20
-3.4397277832031281
 30
0.0
 11
93.499999999999986
 21
-3.4397277832031312
 31
0.0
  0
LINE
  5
105
  8
0
  6
C_CENTER_L
 10
88.499999999999986
 20
24.560272216796871
 30
0.0
 11
93.499999999999986
 21
24.560272216796871
 31
0.0
  0
CIRCLE
  5
106
  8
0
  6
CONTINUOUS
 10
91.0
 20
10.56027221679687
 30
0.0
 40
2.099999904632567
  0
LINE
  5
107
  8
0
  6
CONTINUOUS
 10
11.099990844726561
 20
10.56027221679687
 30
0.0
 11
11.099990844726561
 21
30.060272216796871
 31
0.0
  0
LINE
  5
108
  8
0
  6
CONTINUOUS
 10
-19.90000915527343
 20
30.060272216796871
 30
0.0
 11
11.099990844726561
 21
30.060272216796871
 31
0.0
  0
LINE
  5
109
  8
0
  6
CONTINUOUS
 10
-19.900009155273441
 20
7.2183380126953116
 30
0.0
 11
-19.90000915527343
 21
30.060272216796871
 31
0.0
  0
LINE
  5
10A
  8
0
  6
CONTINUOUS
 10
-19.900009155273441
 20
-8.9397277832031232
 30
0.0
 11
11.099990844726561
 21
-8.939727783203125
 31
0.0
  0
LINE
  5
10B
  8
0
  6
CONTINUOUS
 10
-19.900009155273441
 20
-8.9397277832031232
 30
0.0
 11
-19.900009155273441
 21
10.56027221679687
 31
0.0
  0
LINE
  5
10C
  8
0
  6
CONTINUOUS
 10
32.80000305175782
 20
12.560272216796831
 30
0.0
 11
11.09999084472657
 21
12.56027221679687
 31
0.0
  0
LINE
  5
10D
  8
0
  6
CONTINUOUS
 10
11.09999084472657
 20
8.5602722167968661
 30
0.0
 11
32.80000305175782
 21
8.5602722167968501
 31
0.0
  0
LINE
  5
10E
  8
0
  6
CONTINUOUS
 10
-32.480010986328118
 20
9.3102722167968963
 30
0.0
 11
-29.480010986328121
 21
9.3102722167968963
 31
0.0
  0
LINE
  5
10F
  8
0
  6
CONTINUOUS
 10
-29.480010986328121
 20
11.810272216796889
 30
0.0
 11
-32.480010986328118
 21
11.8102722167969
 31
0.0
  0
LINE
  5
110
  8
0
  6
C_CENTER_L
 10
-34.37309265136718
 20
10.560272216796889
 30
0.0
 11
35.88299560546875
 21
10.56027221679685
 31
0.0
  0
LINE
  5
111
  8
0
  6
CONTINUOUS
 10
-33.180007934570298
 20
9.7144165039062678
 30
0.0
 11
-33.180007934570298
 21
11.406127929687489
 31
0.0
  0
LINE
  5
112
  8
0
  6
CONTINUOUS
 10
33.100006103515632
 20
8.8602752685546662
 30
0.0
 11
33.100006103515632
 21
12.260269165039031
 31
0.0
  0
LINE
  5
113
  8
0
  6
CONTINUOUS
 10
-32.480010986328118
 20
9.3102722167968928
 30
0.0
 11
-32.480010986328118
 21
11.810272216796889
 31
0.0
  0
LINE
  5
114
  8
0
  6
CONTINUOUS
 10
-33.180011207465668
 20
9.7144176826843136
 30
0.0
 11
-32.480012781167261
 21
9.3102733955749386
 31
0.0
  0
LINE
  5
115
  8
0
  6
CONTINUOUS
 10
-32.480009353242963
 20
11.81027597615673
 30
0.0
 11
-33.18000777954137
 21
11.40613168904736
 31
0.0
  0
LINE
  5
116
  8
0
  6
CONTINUOUS
 10
33.09999216462824
 20
8.8602592640440871
 30
0.0
 11
32.799997738292618
 21
8.560266000937645
 31
0.0
  0
LINE
  5
117
  8
0
  6
CONTINUOUS
 10
33.10005495198196
 20
12.260261236538099
 30
0.0
 11
32.800057457339548
 21
12.56026224621883
 31
0.0
  0
LINE
  5
118
  8
0
  6
CONTINUOUS
 10
32.800004120514522
 20
8.5602706909188786
 30
0.0
 11
32.800011749911768
 21
12.56027069091888
 31
0.0
  0
LINE
  5
119
  8
0
  6
CONTINUOUS
 10
11.099990844726561
 20
-8.939727783203125
 30
0.0
 11
11.099990844726561
 21
10.56027221679687
 31
0.0
  0
LINE
  5
11A
  8
0
  6
CONTINUOUS
 10
-29.480010986328121
 20
7.5602722167968768
 30
0.0
 11
-26.480010986328121
 21
7.5602722167968768
 31
0.0
  0
LINE
  5
11B
  8
0
  6
CONTINUOUS
 10
-29.480010986328121
 20
13.56027221679688
 30
0.0
 11
-26.480010986328121
 21
13.56027221679688
 31
0.0
  0
LINE
  5
11C
  8
0
  6
CONTINUOUS
 10
-29.480010986328121
 20
10.56027221679687
 30
0.0
 11
-29.480010986328121
 21
13.56027221679688
 31
0.0
  0
LINE
  5
11D
  8
0
  6
CONTINUOUS
 10
-26.480010986328121
 20
10.56027221679687
 30
0.0
 11
-26.480010986328121
 21
13.56027221679688
 31
0.0
  0
LINE
  5
11E
  8
0
  6
CONTINUOUS
 10
-29.480010986328121
 20
7.5602722167968768
 30
0.0
 11
-29.480010986328121
 21
10.56027221679687
 31
0.0
  0
LINE
  5
11F
  8
0
  6
CONTINUOUS
 10
-26.480010986328121
 20
7.5602722167968768
 30
0.0
 11
-26.480010986328121
 21
10.56027221679687
 31
0.0
  0
CIRCLE
  5
120
  8
0
  6
CONTINUOUS
 10
91.0
 20
10.56027221679687
 30
0.0
 40
20.0
  0
LINE
  5
121
  8
0
  6
CONTINUOUS
 10
-24.98000335693359
 20
-6.13970947265625
 30
0.0
 11
-19.900009155273441
 21
-6.13970947265625
 31
0.0
  0
LINE
  5
122
  8
0
  6
CONTINUOUS
 10
-26.47999477075814
 20
-5.5936847286545781
 30
0.0
 11
-24.980028979416371
 21
-6.1396255034121623
 31
0.0
  0
LINE
  5
123
  8
0
  6
CONTINUOUS
 10
-26.48000335693359
 20
11.81027221679687
 30
0.0
 11
-26.48000335693359
 21
26.714263916015621
 31
0.0
  0
LINE
  5
124
  8
0
  6
CONTINUOUS
 10
-26.48000335693359
 20
-5.593719482421875
 30
0.0
 11
-26.48000335693359
 21
9.3102722167968768
 31
0.0
  0
LINE
  5
125
  8
0
  6
CONTINUOUS
 10
-26.48000507106434
 20
26.714277496389169
 30
0.0
 11
-24.980037487400349
 21
27.26021892349614
 31
0.0
  0
LINE
  5
126
  8
0
  6
CONTINUOUS
 10
-24.980003356933562
 20
27.260253906250028
 30
0.0
 11
-19.900009155273409
 21
27.260253906250021
 31
0.0
  0
CIRCLE
  5
127
  8
0
  6
CONTINUOUS
 10
-91.843811035156236
 20
10.56027221679687
 30
0.0
 40
20.0
  0
LINE
  5
128
  8
0
  6
CONTINUOUS
 10
-35.980003356933587
 20
6.2569732666015616
 30
0.0
 11
-26.48000335693359
 21
6.2569732666015616
 31
0.0
  0
LINE
  5
129
  8
0
  6
CONTINUOUS
 10
-35.980003356933587
 20
4.2569732666015607
 30
0.0
 11
-26.48000335693359
 21
4.2569732666015607
 31
0.0
  0
LINE
  5
12A
  8
0
  6
CONTINUOUS
 10
-36.480003356933587
 20
4.7569732666015607
 30
0.0
 11
-36.480003356933587
 21
5.7569732666015616
 31
0.0
  0
ARC
  5
12B
  8
0
  6
CONTINUOUS
 10
-35.980003356933587
 20
4.7569732666015607
 30
0.0
 40
0.5
 50
180.00000865142201
 51
269.99999749552182
  0
ARC
  5
12C
  8
0
  6
CONTINUOUS
 10
-35.980003356933587
 20
5.7569732666015616
 30
0.0
 40
0.5
 50
90.000002504478175
 51
180.00000500895629
  0
CIRCLE
  5
12E
  8
0
  6
CONTINUOUS
 10
-91.843811035156236
 20
10.56027221679687
 30
0.0
 40
18.200000762939439
  0
ENDSEC
  0
EOF
